Good Morning: Guitar Player
Soulful Blues Lead (161)   Previous Lick | Next Lick

Audio, Chords & Tab View pdf to Save / Print composition pdf
Soulful Blues Lead (161) - Neal Walter
* Audio file extracted from contributor’s website

Soulful Blues Lead (161) - Neal Walter  (4/4 - Key G)

  G7
              __                             __      __
   |  |   |  |  |   |  |  |  |   |  |   |   |  |    |  |  |  |  |
e|----------------|------------|-----------------|----------------|
B|---11b-11b-8----|-8v---11b---|---13b-13b-11----|-11-------------|
G|-------------10-|------------|--------------12-|----12s---------|
D|----------------|------------|-----------------|----------------|
A|----------------|------------|-----------------|----------------|
E|----------------|------------|-----------------|----------------|

   C7                             G7
              __                              __ 
   |  |   |  |  |    |  |  |  |   |  |   |   |  |    |  |  |  |
e|-----------------|------------|-----------------|--------------|
B|---11b-11b-8-----|-8v---10b---|---13b-13b-11-13-|-11-----------|
G|-------------10--|------------|-----------------|----12v-------|
D|-----------------|------------|-----------------|--------------|
A|-----------------|------------|-----------------|--------------|
E|-----------------|------------|-----------------|--------------|


   D7 (MINOR Box 4)          C7                       G7
    ____             ____              __    __ __ 
   |    |  |   |    |    |    |  |    |  |  |  |  |   |  |  |  |
e|-----13------------------|------------------------|------------|
B|-13b-------p13r-(13)p 11-|-13-11--13b-11----------|------------|
G|-------------------------|---------------12-10-12-|-(12)-------|
D|-------------------------|------------------------|------------|
A|-------------------------|------------------------|------------|
E|-------------------------|------------------------|------------|

  Dm7

   |  |  |  |
e|------------|
B|------------|
G|------------|
D|------------|
A|------------|
E|------------|
        
 
 
Info Show/Hide: Song Information
Stats Song Stats
Rate Show/Hide: Rate this Song
 

Song Info  Soulful Blues Lead (161) - Neal Walter
Soulful Blues Lead (161) - Neal Walter
Neal shares his insight to getting more soulful sounding blues licks in this lesson. This "call and answer" lick is In the key of G minor and uses the box pattern commonly used by BB King and Eric Clapton. The simple tips in this lesson can help get you from "just playing notes" to playing more melodic and soulful blues lead.

Played over a 12 bar progression

Lesson: http://www.guitartricks.com/courselesson.php?input=M2JhPjZkNGZlZA

Source: GuitarTricks.com

Rate this Song  Soulful Blues Lead (161) - Neal Walter




Song Stats  Soulful Blues Lead (161) - Neal Walter
Adder: Bill Charrette [ willc ]
Date: 3/26/2013
Updated: 2/21/2019
Tab By: willc
Rated: (3) Hot! Popular!
Views: 436
pdf Hits: 302
Genre: Licks
 
  Previous Lick | Next Lick