My Guitar Songbook
Good Evening: Guitar Player
Slow Blues Guitar Lick (Way...   Previous Lick | Next Lick

Audio, Chords & Tab pdf View pdf to Save / Print composition
Slow Blues Guitar Lick (Way Up) - Robert Renman
* Audio file extracted from contributor’s website

Slow Blues Guitar Lick (Way Up) - Robert Renman  (4/4 - Key E)

Key E:
-----


Rythum Groove and Embellishment

   E
    _   _   _   _     _   _   _   _     _   _   _   _     _   _   _   _
   | | | | | | | |   | | | | | | | |   | | | | | | | |   | | | | | | | |
e|-----------------|-----------------|-----------------|---------------0-|
B|-----------------|-----------------|-----------------|-------------3---|
G|-----------------|---------3b2p0---|-----------------|----------s4-----|
D|-------2---------|-------2-------2-|------0h2--------|-------2---------|
A|-----------------|-----------------|-----------------|-----------------|
E|-0-0-3b--0-0-0-0-|-0-0-3b----------|-0-0-3b--0-0-0-0-|-0-0-3b--0-------|


Lick

    ___    ___    ___    ___    ___      ___      ___    ___    ___
   |   |  |   |  |   |  |   |  |   |    |   |    |   |  |   |  |   |
e|-----------------------------------------------------------------------|
B|--------------------------15-------------------------------------------|
G|-----12-14-14br(14)12-------14b-14-12h14----12h14-----12s\-------------|
D|s14-------------------14-----------------------------------------12-14-|
A|------------------------------------------------------------s14--------|
E|-----------------------------------------------------------------------|



*:·..·:*¨¨*:·..·:*¨¨*:·..·:*¨¨*:·..·:*¨¨*:·..·:*¨¨*:·..·:*



Key A (Transposed - Original Key E):
-----


Rythum Groove

   E
    _   _   _   _     _   _   _   _     _   _   _   _     _   _   _   _
   | | | | | | | |   | | | | | | | |   | | | | | | | |   | | | | | | | |
e|-----------------|-----------------|-----------------|-----------------|
B|-----------------|-----------------|-----------------|-----------------|
G|-------2---------|-------2---------|-------2---------|-------2---------|
D|-----------------|-----------------|-----------------|-----------------|
A|-0-0-3b--0-0-0-0-|-0-0-3b--0-0-0-0-|-0-0-3b--0-0-0-0-|-0-0-3b--0-0-0-0-|
E|-----------------|-----------------|-----------------|-----------------|


Lick

    ___    ___    ___    ___    ___      ___      ___    ___    ___
   |   |  |   |  |   |  |   |  |   |    |   |    |   |  |   |  |   |
e|-----------------------------------------------------------------------|
B|--------------------------8--------------------------------------------|
G|-----5--7---7br(7)-5---------7b--7--5h7------5h7------5s\--------------|
D|s7--------------------7------------------------------------------5--7--|
A|------------------------------------------------------------s7---------|
E|-----------------------------------------------------------------------|
        
 
 
Info Show/Hide: Song Information
Stats Song Stats
Rate Show/Hide: Rate this Song
Top  

Song Info  Slow Blues Guitar Lick (Way... - Robert Renman
Slow Blues Guitar Lick (Way Up) - Robert Renman
Guitar Lesson Overview

Here is a handy guitar lesson about playing a cool lick to a Hendrix style rhythm. You simply play some nice and fat rhythm guitar, and then throw in a classy lick when you feel like it. Cool huh?

Listen to the album Electric Ladyland by Jimi Hendrix. The song Voodoo Chile has a rhythm similar to what I do in this video.

Source: DolphinStreet.com

Rate this Song  Slow Blues Guitar Lick (Way... - Robert Renman




Song Stats  Slow Blues Guitar Lick (Way... - Robert Renman
Adder: Bill Charrette [ willc ]
Date: 3/15/2013
Tab By: willc
Rated: (3) Hot! Popular!
Views: 326
pdf Hits: 134
Genre: Licks
 
  Previous Lick | Next Lick