My Guitar Songbook
Good Evening: Guitar Player
Funky Rhythm Lesson - Fly High   Previous Lick | Next Lick

Audio, Chords & Tab pdf View pdf to Save / Print composition
Funky Rhythm Lesson - Fly High - Robert Renman
* Audio file extracted from contributor’s website

Funky Rhythm Lesson - Fly High - Robert Renman  (4/4 - Key Em)

Key E:
-----

   MINOR (Box 3)
    _   _ _ _   _ _ _   _ _ __      _   _ _ _   _ _   _ _ _
   | | | | | | | | | | | | |  |    | | | | | | | | | | | | |
e|-------------------------------|---------------------------|
B|-------------------------------|---------------------------|
G|-------------------------------|---------------------------|
D|-------------5-----------------|-------------5---7brp5-----|
A|---7---5h7-------7---5h7-------|---7---5h7-------------7p5-|
E|-0--(0)---(0)-(0)-(0)---(0)(0)-|-0—-(0)---(0)-(0)----------|


*:•..•:*¨¨*:•..•:*¨¨*:•..•:*¨¨*:•..•:*¨¨*:•..•:*¨¨*:•..•:*


Key A (Transposed - Original Key E):
-----

   MINOR (Box 1)
    _   _ _ _   _ _ _   _ _ __      _   _ _ _   _ _   _ _ _
   | | | | | | | | | | | | |  |    | | | | | | | | | | | | |
e|-------------------------------|---------------------------|
B|-------------------------------|---------------------------|
G|-------------5-----------------|-------------5---7brp5-----|
D|---7---5h7-------7---5h7-------|---7---5h7-------------7p5-|
A|-0--(0)---(0)-(0)-(0)---(0)(0)-|-0—-(0)---(0)-(0)----------|
E|-------------------------------|---------------------------|


(0) = Ghost Note: A Ghost Note is a musical note with a rhythmic value, but no
discernible pitch when played. This is played by sounding a muted string.
Muted to the point where it is more percussive sounding than obvious
and clear in pitch.
        
 
 
Info Show/Hide: Song Information
Stats Song Stats
Rate Show/Hide: Rate this Song
Top  

Song Info  Funky Rhythm Lesson - Fly High - Robert Renman
Funky Rhythm Lesson - Fly High - Robert Renman
Master Guitar Academy is where Robert Renman teaches guitar. Blues, rock, jazz, funk, technique, improvisation, theory, beginner, intermediate, advanced – the list is long, because he teaches many styles.

Perhaps you know him from http://www.dolphinstreet.com ? Yep, that’s him, but this site is different. This website is FOCUSED on teaching guitar. That means, the look and feel is slick and clean and non-cluttered, and this is where I put my heart and soul into creating lessons, as well as doing Live Streaming Video Sessions, EVERY WEEK. Everything is focused on helping YOU improve as a player.

Source: Master Guitar Academy

Rate this Song  Funky Rhythm Lesson - Fly High - Robert Renman




Song Stats  Funky Rhythm Lesson - Fly High - Robert Renman
Adder: Bill Charrette [ willc ]
Date: 3/10/2013
Updated: 3/4/2014
Tab By: willc
Rated: (3) Hot! Popular!
Views: 321
pdf Hits: 151
Genre: Licks
 
  Previous Lick | Next Lick