Good Evening: Guitar Player
SRV Style Lick (140)   Previous Lick | Next Lick

Audio, Chords & Tab View pdf to Save / Print composition pdf
SRV Style Lick (140) - Neal Walter
* Audio file extracted from contributor’s website

SRV Style Lick (140) - Neal Walter  (4/4 - Key E)

Key E:
-----
    _ _   _ _   _ _   _ _     _   _   _   _ 
   | | | | | | | | | | | |   | | | | | | | |
e|-------------------------|-----------------|
B|-2s3-3-3-3-3-3-3-3-------|-----------------|
G|-3s4-4-4-4-4-4-4-4s2p0---|-----------------|
D|-----------------------2-|-----------------|
A|-------------------------|-2-2-4-4-2-2-4-4-|
E|-------------------------|-0-0-0-0-0-0-0-0-|


*:•..•:*¨¨*:•..•:*¨¨*:•..•:*¨¨*:•..•:*¨¨*:•..•:*¨¨*:•..•:*


Key A (Transposed - Original Key E):
-----
    _ _   _ _   _ _   _ _     _   _   _   _
   | | | | | | | | | | | |   | | | | | | | |
e|-------------------------|-----------------|
B|-7s8-8-8-8-8-8-8-8-------|-----------------|
G|-8s9-9-9-9-9-9-9-9s7p5---|-----------------|
D|-----------------------7-|-----------------|
A|-------------------------|-7-7-9-9-7-7-9-9-|
E|-------------------------|-5-5-5-5-5-5-5-5-|
        
 
 
Info Show/Hide: Song Information
Stats Song Stats
Rate Show/Hide: Rate this Song
 

Song Info  SRV Style Lick (140) - Neal Walter
SRV Style Lick (140) - Neal Walter
San Francisco, California session guitarist Neal Walter is your host for the Guitar Tricks Channel. Neal has a warm, vibrant "classic rock" sound and a wealth of information about how to quickly improve your guitar playing.

Classically trained at age 7 on guitar, Neal then progressed to the styles of Jazz, Country and Blues with a focus on Rock guitar. He currently plays guitar in the power-rock quartet NTL and is a session player for various local artists.

Here is a classic lick that every blues player should know. You may have heard Stevie Ray Vaughan use this one but it's been around for years and used by many great blues players. Neal shows you the lick in open E position and in a moveable position so you can play it anywhere on the neck. Tip of the week: Drop that pick

Source: GuitarTricks.com

Rate this Song  SRV Style Lick (140) - Neal Walter




Song Stats  SRV Style Lick (140) - Neal Walter
Adder: Bill Charrette [ willc ]
Date: 3/7/2013
Tab By: willc
Rated: (2) Hot! Popular!
Views: 295
pdf Hits: 196
Genre: Licks
 
  Previous Lick | Next Lick