My Guitar Songbook
Good Evening: Guitar Player
Bring it on Home Lick   Previous Lick | Next Lick

Audio, Chords & Tab pdf View pdf to Save / Print composition
Bring it on Home Lick - Jim Clymer
* Audio file extracted from contributor’s website

Bring it on Home Lick - Jim Clymer  (4/4 - Key E)

Key E:

Blues Shuffle Rhythm:

   E7
    _   _   _   _ _     _   _   _   _ _     _   _   _   _ _     _   _   _   _ _
   | | | | | | | | |   | | | | | | | | |   | | | | | | | | |   | | | | | | | | | 
e|-------------------|-------------------|-------------------|-------------------|
B|-------------------|-------------------|-------------------|-------------------|
G|-------------------|-------------------|-------------------|-------------------|
D|-------------------|-------------------|-------------------|-------------------|
A|-2-2-4-4-2-2-----2-|-2-2-4-4-2-2-----2-|-2-2-4-4-2-2-----2-|-2-2-4-4-2-2-----2-|
E|-0-0-0-0-0-0-3h4---|-0-0-0-0-0-0-3h4---|-0-0-0-0-0-0-3h4---|-0-0-0-0-0-0-3h4---|

   A7                                       E7
    _   _   _   _ _     _   _   _   _ _     _   _   _   _ _     _   _   _   _ _
   | | | | | | | | |   | | | | | | | | |   | | | | | | | | |   | | | | | | | | | 
e|-------------------|-------------------|-------------------|-------------------|
B|-------------------|-------------------|-------------------|-------------------|
G|-------------------|-------------------|-------------------|-------------------|
D|-2-2-4-4-2-2-----2-|-2-2-4-4-2-2-----2-|-------------------|-------------------|
A|-0-0-0-0-0-0-3h4---|-0-0-0-0-0-0-3h4---|-2-2-4-4-2-2-----2-|-2-2-4-4-2-2-----2-|
E|-------------------|-------------------|-0-0-0-0-0-0-3h4---|-0-0-0-0-0-0-3h4---|

   B7                  A7              E
    _   _   _   _     _   _   _   _     _   _   _   _     _   _   _   _
   | | | | | | | |   | | | | | | | |   | | | | | | | |   | | | | | | | | 
e|-----------------|-----------------|-x---------------|-----------------|
B|-----------------|-----------------|-x---------------|-----------------|
G|-----------------|-----------------|-1---------------|-----------------|
D|-4-4-6-6-4-4-6-6-|-2-2-4-4-2-2---2-|-2---------------|-----------------|
A|-2-2-2-2-2-2-2-2-|-0-0-0-0-0-0-0---|-2---------------|-----------------|
E|-----------------|-----------------|-0---------------|-3b-----p0-------|


Funky Blues Riff:

    _   _   _   _     _   _   _   _     _   _   _   _     _   _   _   _
   | | | | | | | |   | | | | | | | |   | | | | | | | |   | | | | | | | |
e|-----------------|-----------------|-----------------|-----------------|
B|-----------------|-----------------|-----------------|-----------------|
G|-----------------|-2b--2p1-2p1-----|-----------------|-2b--2p1-2-------| (4x)
D|-----0h2---------|-------------2---|-----0h2---------|-----------------|
A|-0h2-------------|-----------------|-0h2-------------|-----------------|
E|---------0-------|-----------------|---------0-------|-----------------|


Verse Thing:

    _   _   _   _ _     _   _   _   _ _ 
   | | | | | | | | |   | | | | | | | | |
e|-------------------|-------------------|
B|-2s3-1s2-----------|-2s3-1s2-----------|
G|-3s4-1s2-0h1-------|-3s4-1s2-0h1-------| (7x)
D|-------------------|-------------------|
A|---------------2-0-|-------------------|
E|-------------0-3---|-------------0-3b0-|


Outro:

    ___ ___    ___ ___    ___ ___    ___ ___    ___ ___    ___ ___
   |   |   |  |   |   |  |   |   |  |   |   |  |   |   |  |   |   |
e|---------------12---------12---------12---------------------------|
B|------------9-------9-10------10-11------11-12--------------------|
G|----------------------------------------------------------------7-|
D|------------9-------9-10------10-11------11-12----------6-------6-|
A|--------------------------------------------------------7-------7-|
E|-0---------------------------------------------------0--0---0-----|
        
 
 
Info Show/Hide: Song Information
Stats Song Stats
Rate Show/Hide: Rate this Song
Top  

Song Info  Bring it on Home Lick - Jim Clymer
Bring it on Home Lick - Jim Clymer
Hey Blues Fans!

I was taking my daily 6 km walk (trying to lose a few kilos) with iPod in hand and earbuds in skull. With about 60 gigs of MP3s set to shuffle mode, I never know what I'm going to hear. Half way through the walk, Led Zeppelin's "Bring it on Home" started playing and I hadn't heard that tune in a long, long time. It has that classic blues shuffles, killer blues riff in the middle, and a sweet ending.

I thought to myself, "Self, this would make a good lesson". So here it is. I'm sure it's not exact, but it's close enough for gub'ment work. The first video covers the opening shuffle, and the second video covers the blues riff in the middle, the little funky part behind the vocals, and the ending.

Source: LearnBluesLicks.com

Rate this Song  Bring it on Home Lick - Jim Clymer




Song Stats  Bring it on Home Lick - Jim Clymer
Adder: Bill Charrette [ willc ]
Date: 3/5/2013
Tab By: willc
Rated: (1) Hot! Popular!
Views: 324
pdf Hits: 146
Genre: Licks
 
  Previous Lick | Next Lick