My Guitar Songbook
Good Evening: Guitar Player
Blues Shuffle Fill Chords -...   Previous Lick | Next Lick

Audio, Chords & Tab pdf View pdf to Save / Print composition
Blues Shuffle Fill Chords - Fill It - Robert Renman
* Audio file extracted from contributor’s website

Blues Shuffle Fill Chords - Fill It - Robert Renman  (4/4 - Key A)

12 Bar Solo - Key A:
-------------------

   A
    _   _   _   _     _   _   _   _     _   _   _   _     _   _   _   _
   | | | | | | | |   | | | | | | | |   | | | | | | | |   | | | | | | | |
e|-----------------|-----------------|-----------------|-----------------|
B|-----8---7-5-----|-5---7-5---------|-----8---7-5-----|-5---7-5---------|
G|-----9---7-6-----|-6---7-6---------|-----9---7-6-----|-6---7-6---------|
D|-----------------|-----------------|-----------------|-----------------|
A|-0-0---0-------0-|---0-------0-3-4-|-0-0---0-------0-|---0-------0-3-4-|
E|-----------------|-----------------|-----------------|-----------------|

   D
    __   __   __   __     __   __   __   __ 
   |  | |  | |  | |  |   |  | |  | |  | |  |
e|---------------------|---------------------|
B|------13--12-10------|10---12-10-----------|
G|------14--12-11------|11---12-11-----------|
D|-0--0----0---------0-|----0---------0------|
A|---------------------|----------------3--2-|
E|---------------------|---------------------|

   A                                   E
    _   _   _   _     _   _   _   _     _   _   _   _     _   _   _   _
   | | | | | | | |   | | | | | | | |   | | | | | | | |   | | | | | | | |
e|-----------------|-----------------|-----------------|-----------------|
B|-----8---7-5-----|-5---7-5---------|-----3---2-0-----|-0---2-0---------|
G|-----9---7-6-----|-6---7-6---------|-----4---2-1-----|-1---2-1---------|
D|-----------------|-----------------|-----------------|-----------------|
A|-0-0---0-------0-|---0-------0-----|-----------------|-----------------|
E|-----------------|-------------3-2-|-0-0---0-------0-|---0-------0-3-4-|

   A
    _   _   _   _     _   _   _   _ 
   | | | | | | | |   | | | | | | | |
e|-----------------|-----------------|
B|-----8---7-5-----|-5---7-5---------|
G|-----9---7-6-----|-6---7-6---------|
D|-----------------|-----------------|
A|-0-0---0-------0-|---0-------0-3-4-|
E|-----------------|-----------------|
        
 
 
Info Show/Hide: Song Information
Stats Song Stats
Rate Show/Hide: Rate this Song
Top  

Song Info  Blues Shuffle Fill Chords -... - Robert Renman
Blues Shuffle Fill Chords - Fill It - Robert Renman
Here is a cool way to play blues guitar rhythm with chords. These chords are mini-chords, often referred to as dyads, because they have only 2 notes. Very useful to use dyads when playing both lead and rhythm guitar!

Robert Renman is a guitar teacher and performer in Canada. The Dolphinstreet.com website has many free guitar lessons for you to learn from.

Robert specializes in blues guitar, as well as rock, jazz, funk, roots, blues, country and shred guitar. There are tons of useful and completely free guitar lessons here for you.

Just take a peek around and you will find many guitar lessons you can download in video format, and many also have Guitar Pro files and Tabs available. Most guitar lessons are of intermediate difficulty, although there are definitely quite a number of free guitar lessons for beginners too.

View YouTube Lesson: http://www.youtube.com/watch?v=difxJtlovg4&feature=player_embedded#!

Source: DolphinStreet.com

Rate this Song  Blues Shuffle Fill Chords -... - Robert Renman




Song Stats  Blues Shuffle Fill Chords -... - Robert Renman
Adder: Bill Charrette [ willc ]
Date: 2/18/2013
Updated: 3/4/2014
Tab By: willc
Rated: (4) Hot! Popular!
Views: 363
pdf Hits: 153
Genre: Licks
 
  Previous Lick | Next Lick