Good Evening: Guitar Player
Using Blues Licks in a 12 Bar...   Previous Lick | Next Lick

Audio, Chords & Tab View pdf to Save / Print composition pdf
Using Blues Licks in a 12 Bar Blues - Nate Savage
* Audio file extracted from contributor’s website

Using Blues Licks in a 12 Bar Blues - Nate Savage  (4/4 - Key E)

Key E:
-----

   E
    _   _   _   _     _   _   _   _ _ _ _     _   _   _   _
   | | | | | | | |   | | | | | | | | | | |   | | | | | | | |
e|-----------------|-----------------------|-----------------|
B|-----------------|-----------------------|-----------------|
G|-----------------|-----------------------|-----------------|
D|-----------------|-----------2---------2-|-----------------|
A|-2-2-4-4-5-5-4-4-|-2-2-4-4-2---0h1p0-----|-2-2-4-4-5-5-4-4-|
E|-0-0-0-0-0-0-0-0-|-0-0-0-0-0---------3---|-0-0-0-0-0-0-0-0-|


   E                     A
    _   _   _ _   _ _     _   _   _   _     _   _   _ _ _ _ _   _ _ _ _ _
   | | | | | | | | | |   | | | | | | | |   | | | | | | | | | | | | | | | |
e|---------------------|-----------------|---------3p0---0-----------------|
B|---------------------|-----------------|-------------3---2h3p2p0---------|
G|---------------------|-----------------|-------------------------2p0-----|
D|-----------2---------|-2-2-4-4-5-5-4-4-|-2-2-4-4---------------------2p0-|
A|-2-2-4-4-2---0h1p0---|-0-0-0-0-0-0-0-0-|-0-0-0-0-------------------------|
E|-0-0-0-0-0---------3-|-----------------|---------------------------------|


                               Walk-up:
   E                                    B7                A7
    _   _   _   _     _   _   _   _ _     _   _   _   _     _   _   _   _
   | | | | | | | |   | | | | | | | | |   | | | | | | | |   | | | | | | | |
e|-----------------|-------------------|-----2-----------|-----0-----------|
B|-----------------|-------------------|-----0-----------|-----2-----------|
G|-----------------|-------------------|-----2-----------|-----0-----------|
D|-----------------|-------------------|-----1-----------|-----2-------2---|
A|-2-2-4-4-5-5-4-4-|-2-2-4-4-2-----0-1-|-2---2-------2-1-|-0---0-----------|
E|-0-0-0-0-0-0-0-0-|-0-0-0-0-0-0-4-----|-----------------|-----------------|


Turnaround:

   E                          B7
      _ _   _ _   _ _   _ _     _   _   _   _
     | | | | | | | | | | | |   | | | | | | | |
e|-5s7-7-7---6-----5-----0---|-----2-----------|
B|---------------------------|-----0-----------|
G|-5s7-7-7-6---6-5---5-0h1---|-----2-----------|
D|---------------------------|-----1-----------|
A|---------------------------|-0-1-2-----------|
E|---------------------------|-----------------|


*:·..·:*¨¨*:·..·:*¨¨*:·..·:*¨¨*:·..·:*¨¨*:·..·:*¨¨*:·..·:*


Key A (transposed - Original Key E):
-----

   A
    _   _   _   _     _   _   _   _ _ _ _     _   _   _   _
   | | | | | | | |   | | | | | | | | | | |   | | | | | | | |
e|-----------------|-----------------------|-----------------|
B|-----------------|-----------------------|-----------------|
G|-----------------|-----------2---------2-|-----------------|
D|-2-2-4-4-5-5-4-4-|-2-2-4-4-2---0h1p0-----|-2-2-4-4-5-5-4-4-|
A|-0-0-0-0-0-0-0-0-|-0-0-0-0-0---------3---|-0-0-0-0-0-0-0-0-|
E|-----------------|-----------------------|-----------------|


   A                     D
    _   _   _ _   _ _     _   _   _   _     _   _   _ _ _ _ _   _ _ _ _ _
   | | | | | | | | | |   | | | | | | | |   | | | | | | | | | | | | | | | |
e|---------------------|-----------------|---------8p5---5-----------------|
B|---------------------|-----------------|-------------8---7h8p7p5---------|
G|-----------2---------|-2-2-4-4-5-5-4-4-|-2-2-4-4-----------------7p5-----|
D|-2-2-4-4-2---0h1p0---|-0-0-0-0-0-0-0-0-|-0-0-0-0---------------------7p5-|
A|-0-0-0-0-0---------3-|-----------------|---------------------------------|
E|---------------------|-----------------|---------------------------------|


                               Walk-up:
   A                                    E7                D7
    _   _   _   _     _   _   _   _ _     _   _   _   _     _   _   _   _
   | | | | | | | |   | | | | | | | | |   | | | | | | | |   | | | | | | | |
e|-----------------|-------------------|-----0-----------|-----2-----------|
B|-----------------|-------------------|-----3-----------|-----1-----------|
G|-----------------|-------------------|-----1-----------|-----2-----------|
D|-2-2-4-4-5-5-4-4-|-2-2-4-4-2-----0-1-|-2---2-------2-1-|-0---------------|
A|-0-0-0-0-0-0-0-0-|-0-0-0-0-0-0-4-----|-----2-----------|-------------0---|
E|-----------------|-------------------|-----0-----------|-----------------|


Turnaround:

   A                                      E7
       __ ___   ___ __    __ ___   _ _     _   _   _   _
      |  |   | |   |  |  |  |   | | | |   | | | | | | | |
e|-10s12-12-12----11-------10-------5---|-----0-----------|
B|--------------------------------------|-----3-----------|
G|-10s12-12-12-11----11-10-----10-5h6---|-----1-----------|
D|--------------------------------------|-0-1-2-----------|
A|--------------------------------------|-----2-----------|
E|--------------------------------------|-----0-----------|
        
 
 
Info Show/Hide: Song Information
Stats Song Stats
Rate Show/Hide: Rate this Song
 

Song Info  Using Blues Licks in a 12 Bar... - Nate Savage
Using Blues Licks in a 12 Bar Blues - Nate Savage
This lesson Nate Savage dresses up the basic 12 bar blues riff by adding in a few new notes. Simple ideas like the ones presented in this lesson can really help make your blues playing stand out from average run of the mill blues riffs.

Guitar Lessons Online!

To inform, empower, and entertain - http://GuitarLessons.com is a free resource for guitarists that are interested in expanding their musical abilities. It is the largest source of free video guitar lessons available on the Internet.

Feel free to explore the beginner, intermediate and advanced guitar lesson videos that cover topics for both acoustic and electric guitar! Take lessons on guitar chords, guitar scales, lead guitar, blues guitar, and much more. No matter what your skill level, you will find helpful advice and detailed training on the GuitarLessons.com website!

Source: GuitarLessons.com

Rate this Song  Using Blues Licks in a 12 Bar... - Nate Savage




Song Stats  Using Blues Licks in a 12 Bar... - Nate Savage
Adder: Bill Charrette [ willc ]
Date: 1/17/2013
Tab By: willc
Rated: (2) Hot! Popular!
Views: 327
pdf Hits: 197
Genre: Licks
 
  Previous Lick | Next Lick