My Guitar Songbook
Good Evening: Guitar Player
Classic Robert Johnson...   Previous Lick | Next Lick

Audio, Chords & Tab pdf View pdf to Save / Print composition
Classic Robert Johnson Turnaround - Griff Hamlin
* Audio file extracted from contributor’s website

Classic Robert Johnson Turnaround - Griff Hamlin  (4/4 - Key A)

Key A:
-----

   A                                     E7
    _ _   _ _   _ _   _ _   _   _   _     _ _   _ _ 
   | | | | | | | | | | | | | | | | | |   | | | | | |
e|---5-----5-----5-----5---------------|-------0-----|
B|-------------------------------------|---3-----3---|
G|-------------------------------------|-----1-------|
D|-------5---5-4---4-3---3-2---0-1-2---|-------------|
A|-0---0-------------------------------|-------------|
E|-------------------------------------|-0---------3-|


   A 
    _ _   _ _   _ 
   | | | | | | | |
e|-----------------|
B|-----------------|
G|-----------------|
D|-2-2-4-4-2-2-4-4-|
A|-0-0-0-0-0-0-0-0-|
E|-----------------| 


*:·..·:*¨¨*:·..·:*¨¨*:·..·:*¨¨*:·..·:*¨¨*:·..·:*¨¨*:·..·:*


Key E (Transposed - Original Key A):
-----

    E                                   B7
    _ _   _ _   _ _   _ _   _   _   _    _ _   _ _ 
   | | | | | | | | | | | | | | | | | |  | | | | | |
e|---0-----0-----0-----0--------------|-------2-----|
B|------------------------------------|---------0---|
G|------------------------------------|---2---------|
D|------------------------------------|-----1-------|
A|-------5---5-4---4-3---3-2---0-1-2--|-2-----------|
E|-0---0------------------------------|-----------3-|


    E 
    _ _   _ _   _ 
   | | | | | | | |
e|-----------------|
B|-----------------|
G|-----------------|
D|-----------------|
A|-2-2-4-4-2-2-4-4-|
E|-0-0-0-0-0-0-0-0-|
        
 
 
Info Show/Hide: Song Information
Stats Song Stats
Rate Show/Hide: Rate this Song
Top  

Song Info  Classic Robert Johnson... - Griff Hamlin
Classic Robert Johnson Turnaround - Griff Hamlin
Griff Hamlin has been fortunate enough to have made his living for his entire adult life as a musician. He has a successful and varied career that has spanned nearly 3 decades. He keeps active as a session and performing guitarist and vocalist for a wide variety of musical groups.

In the last several years, however, his focus has turned almost entirely to teaching and utilizing the internet to that end.

- - - - - - - - - - - - - - - - - - - - - - - - - - - - - - - - - - - - - - - -

Learn To Play Blues Guitar With DVD Video Instruction

Whether You Want To Be The Next Clapton, Or Just Have Some Fun Playing On Your Own Back Porch, You'll Have A Blast With This Simple, Step-By-Step Method.

Learning to play blues guitar has never been so simple, or so enjoyable. This step-by-step, video instruction course contains everything you'll need to really learn the blues inside and out.

These are the exact same lessons that thousands of students, many of them just like you, have used to learn how to play blues guitar. And most importantly, you'll have fun and be on your way to playing the blues from the very first lesson.

Watch Video: http://bluesguitarunleashed.com/get-acoustic-blues-guitar-unleashed/

Source: BluesGuitarUnleashed.com

Rate this Song  Classic Robert Johnson... - Griff Hamlin




Song Stats  Classic Robert Johnson... - Griff Hamlin
Adder: Bill Charrette [ willc ]
Date: 1/2/2013
Updated: 2/18/2015
Tab By: willc
Rated: (4) Hot! Popular!
Views: 336
pdf Hits: 131
Genre: Licks
 
  Previous Lick | Next Lick