Good Morning: Guitar Player
Two Cool Turnarounds   Previous Lick | Next Lick

Audio, Chords & Tab View pdf to Save / Print composition pdf
Two Cool Turnarounds - Andy Partridge
* Audio file extracted from contributor’s website

Two Cool Turnarounds - Andy Partridge  (4/4 - Key E)

Key E:
-----

   E 
      _ _   _ _   _ _   _   _ _   _ _
   | | | | | | | | | | | | | | | | | | 
e|-----4-----3-----2-------0-----------|
B|-------------------------------------|
G|-2s4---4-3---3-2---2-0h1-------------|
D|-------------------------------------|
A|-------------------------------0-1-2-|
E|-------------------------------------|


*:·..·:*¨¨*:·..·:*¨¨*:·..·:*¨¨*:·..·:*

   E   
    _   _   _ _   _ _   _ _   _ _   
   | | | | | | | | | | | | | | | | | 
e|-----------0-----0-----0-----0-----|
B|---------0---0-3---3-2---2-1---1-0-|
G|---1-2-3---------------------------|
D|-----------------------------------|
A|-----------------------------------|
E|-----------------------------------|


*:·..·:*¨¨*:·..·:*¨¨*:·..·:*¨¨*:·..·:*¨¨*:·..·:*¨¨*:·..·:*


Key A (Transposed - Original Key E):
-----

   A 
      _ _   _ _   _ _   _   _ _   _ _
   | | | | | | | | | | | | | | | | | |
e|-----9-----8-----7-------5-----------|
B|-------------------------------------|
G|-7s9---9-8---8-7---7-5h6-------------|
D|-------------------------------------|
A|-------------------------------5-6-7-|
E|-------------------------------------|


*:·..·:*¨¨*:·..·:*¨¨*:·..·:*¨¨*:·..·:*

   A   
    _   _   _ _   _ _   _ _   _ _   
   | | | | | | | | | | | | | | | | | 
e|-----------5-----5-----5-----5-----|
B|---------5---5-8---8-7---7-6---6-5-|
G|---6-7-8---------------------------|
D|-----------------------------------|
A|-----------------------------------|
E|-----------------------------------|
        
 
 
Info Show/Hide: Song Information
Stats Song Stats
Rate Show/Hide: Rate this Song
 

Song Info  Two Cool Turnarounds - Andy Partridge
Two Cool Turnarounds - Andy Partridge
A great Blues Riff, or Blues Run, for you that you can use in different ways and in different parts of any Blues song in the key of A. These short sessions will really develop your skills, so you can learn our great guitar songs even quicker and easier.

This is quite simple riff or run to get the hang of, but it does get a little trickier when you pick up the speed and start to play along to the backing track I’ve created for you.

There’s a whole range of other Blues sessions including Riffs, Song endings and Improvisation Sessions. The Song library has that classic Blues number from the Doors, Roadhouse Blues. There’s plenty of easy guitar songs for you to master in the BandJammer libraries.

Source: BandJammer.com

Rate this Song  Two Cool Turnarounds - Andy Partridge




Song Stats  Two Cool Turnarounds - Andy Partridge
Adder: Bill Charrette [ willc ]
Date: 1/2/2013
Updated: 3/4/2014
Tab By: willc
Rated: (4) Hot! Popular!
Views: 402
pdf Hits: 297
Genre: Licks
 
  Previous Lick | Next Lick