Good Morning: Guitar Player
Two Cool Blues Guitar Licks   Previous Lick | Next Lick

Audio, Chords & Tab View pdf to Save / Print composition pdf
Two Cool Blues Guitar Licks - Robert Renman
* Audio file extracted from contributor’s website

Two Cool Blues Guitar Licks - Robert Renman  (4/4 - Key E)

Key E:
-----

Lick 1:

   E
    _   _   _   _     _   _   _   _     _   _   _   _ 
   | | | | | | | |   | | | | | | | |   | | | | | | | |
e|-----3---0-------|-----------0-----|-----------------|
B|-------------3---|-0-------3---3---|-----------------|
G|-----------------|-----3s4-------4s|-2---0-----------|
D|-----------------|-----------------|---------2-------|
A|-----------------|-----------------|-----------------|
E|-0---------------|-----------------|-----------------|


Lick 2: (Box 3)

   E
    _   _   _   _   _     _   _   _   _     _   _   _   _ 
   | | | | | | | | | |   | | | | | | | |   | | | | | | | |
e|---------------------|-----------------|-----------------|
B|-------------5---7b--|-5---7-------5---|(5)--------------|
G|-----4-5s6-----------|---------6-------|-----------------|
D|---------------------|-----------------|-----------------|
A|---------------------|-----------------|-----------------|
E|-0-------------------|-----------------|-----------------|


*:·..·:*¨¨*:·..·:*¨¨*:·..·:*¨¨*:·..·:*¨¨*:·..·:*¨¨*:·..·:*


Key A (Transposed - Original Key E):
-----

Lick 1:

   A
    _   _   _   _     _   _   __   _     _   _   _   _ 
   | | | | | | | |   | | | | |  | | |   | | | | | | | |
e|-----8---5-------|------------------|-----------------|
B|-------------8---|-5-------8-10-8---|-----------------|
G|-----------------|-----8s9--------9s|-7---5-----------|
D|-----------------|------------------|---------7-------|
A|-----------------|------------------|-----------------|
E|-5---------------|------------------|-----------------|


Lick 2: (Box 3)

   A
    _   __   _   _   _     _   _   _   _     _   _   _   _ 
   | | |  | | | | | | |   | | | | | | | |   | | | | | | | |
e|----------------------|-----------------|-----------------|
B|-------------10--12b--|-10-12-------10--|(10)-------------|
G|-----9-10s11----------|---------11------|-----------------|
D|----------------------|-----------------|-----------------|
A|----------------------|-----------------|-----------------|
E|-5--------------------|-----------------|-----------------|
        
 
 
Info Show/Hide: Song Information
Stats Song Stats
Rate Show/Hide: Rate this Song
 

Song Info  Two Cool Blues Guitar Licks - Robert Renman
Two Cool Blues Guitar Licks - Robert Renman
Robert Renman is a guitar teacher and performer in Canada. The Dolphinstreet.com website has many free guitar lessons for you to learn from. Robert specializes in blues guitar, as well as rock, jazz, funk, roots, blues, country and shred guitar. There are tons of useful and completely free guitar lessons here for you.

Just take a peek around and you will find many guitar lessons you can download in video format, and many also have Guitar Pro files and Tabs available. Most guitar lessons are of intermediate difficulty, although there are definitely quite a number of free guitar lessons for beginners too.


View YouTube Lesson: http://www.youtube.com/watch?feature=player_embedded&v=3GGXpKMPA8Q

Source: Dolphinstreet.com

Rate this Song  Two Cool Blues Guitar Licks - Robert Renman




Song Stats  Two Cool Blues Guitar Licks - Robert Renman
Adder: Bill Charrette [ willc ]
Date: 12/11/2012
Updated: 3/23/2014
Tab By: willc
Rated: (2) Hot! Popular!
Views: 379
pdf Hits: 206
Genre: Licks
 
  Previous Lick | Next Lick