My Guitar Songbook
Good Evening: Guitar Player
Four Note Solo   Previous Lick | Next Lick

Audio, Chords & Tab pdf View pdf to Save / Print composition
Four Note Solo - Griff Hamlin
* Audio file extracted from contributor’s website

Four Note Solo - Griff Hamlin  (12/8 - Key A)

An Entire 24 Bar Solo using 4 Notes
-----------------------------------

Key A:
-----


   A7                               D7

e|-----------------------8b-------|-------8------10b-------10---8-|
B|---------10--10-----------------|----10-------------------------|
G|--------------------------------|-------------------------------|
D|--------------------------------|-------------------------------|
A|--------------------------------|-------------------------------|
E|--------------------------------|-------------------------------|

   A7                                       D7

e|---------8b----------|------------------|--------8--8--------10b|
B|-10------------------|--------10-8-10-8-|-10--10------10---8----|
G|---------------------|------------------|-----------------------|
D|---------------------|------------------|-----------------------|
A|---------------------|------------------|-----------------------|
E|---------------------|------------------|-----------------------|

   D7                           A7

e|--10--10--8--10b----10-8b---|---------------|---10b--------10-8-|
B|----------------------------|---------------|-------------------|
G|----------------------------|---------------|-------------------|
D|----------------------------|---------------|-------------------|
A|----------------------------|---------------|-------------------|
E|----------------------------|---------------|-------------------|

   E7                 D7                      A7

e|-10b-10b----------|---10b-10b-10b-----8-8-|-----8b--------------|
B|------------------|-----------------------|-10------------------|
G|------------------|-----------------------|---------------------|
D|------------------|-----------------------|---------------------|
A|------------------|-----------------------|---------------------|
E|------------------|-----------------------|---------------------|

   E7                    A7                    D7

e|----10b-10p8---------|----10b--10b---------|---8-----------8----|
B|-------------10-8----|---------------------|-------10-8-10------|
G|---------------------|---------------------|--------------------|
D|---------------------|---------------------|--------------------|
A|---------------------|---------------------|--------------------|
E|---------------------|---------------------|--------------------|

   A7

e|-----------8-------8-------8----|---8-------8-------8-------8---|
B|-----8h10----8h10----8h10----8h-|10----8h10----8h10----8h10---8-|
G|--------------------------------|-------------------------------|
D|--------------------------------|-------------------------------|
A|--------------------------------|-------------------------------|
E|--------------------------------|-------------------------------|

   D7

e|-10p8----10p8----10p8----10p8---|10p8----10p8----10p8----10p8---|
B|------10------10------10------10|-----10------10------10------10|
G|--------------------------------|-------------------------------|
D|--------------------------------|-------------------------------|
A|--------------------------------|-------------------------------|
E|--------------------------------|-------------------------------|

   A7                                            E7

e|-10b-10b------------|--------10b--10--10--8--|-10--8------------|
B|--------------------|------------------------|--------10--8-----|
G|--------------------|------------------------|------------------|
D|--------------------|------------------------|------------------|
A|--------------------|------------------------|------------------|
E|--------------------|------------------------|------------------|

   D7                               A7

e|8h10----8-----------------------|-------8b----------------------|
B|------------10-----8---10-------|-10----------------------------|
G|--------------------------------|-------------------------------|
D|--------------------------------|-------------------------------|
A|--------------------------------|-------------------------------|
E|--------------------------------|-------------------------------|

   E7                                   A7

e|---------8-----10b-----------10---8-|---------------------------|
B|-----10-----------------------------|-10------------------------|
G|------------------------------------|---------------------------|
D|------------------------------------|---------------------------|
A|------------------------------------|---------------------------|
E|------------------------------------|---------------------------| 


*:·..·:*¨¨*:·..·:*¨¨*:·..·:*¨¨*:·..·:*¨¨*:·..·:*¨¨*:·..·:*


Key E (Transposed - Original Key A):
-----


   E7                               A7

e|-----------------------3b-------|-------3-------5b--------5---3-|
B|----------5---5-----------------|-----5-------------------------|
G|--------------------------------|-------------------------------|
A|--------------------------------|-------------------------------|
E|--------------------------------|-------------------------------|
E|--------------------------------|-------------------------------|

   E7                                       A7

e|---------3b----------|------------------|--------3--3---------5b|
B|--5------------------|---------5-3--5-3-|--5---5-------5---3----|
G|---------------------|------------------|-----------------------|
A|---------------------|------------------|-----------------------|
E|---------------------|------------------|-----------------------|
E|---------------------|------------------|-----------------------|

   A7                           E7

e|---5---5--3---5b-----5-3b---|---------------|----5b---------5-3-|
B|----------------------------|---------------|-------------------|
G|----------------------------|---------------|-------------------|
A|----------------------------|---------------|-------------------|
E|----------------------------|---------------|-------------------|
E|----------------------------|---------------|-------------------|

   B7                 A7                      E7

e|--5b--5b----------|----5b--5b--5b-----3-3-|-----3b--------------|
B|------------------|-----------------------|--5------------------|
G|------------------|-----------------------|---------------------|
A|------------------|-----------------------|---------------------|
E|------------------|-----------------------|---------------------|
E|------------------|-----------------------|---------------------|

   B7                    E7                    A7

e|-----5b--5p3---------|-----5b---5b---------|---3-----------3----|
B|--------------5-3----|---------------------|--------5-3--5------|
G|---------------------|---------------------|--------------------|
A|---------------------|---------------------|--------------------|
E|---------------------|---------------------|--------------------|
E|---------------------|---------------------|--------------------|

   E7

e|-----------3-------3-------3----|---3-------3-------3-------3---|
B|-----3h-5----3h-5----3h-5----3h-|-5----3h-5----3h-5----3h-5---3-|
G|--------------------------------|-------------------------------|
A|--------------------------------|-------------------------------|
E|--------------------------------|-------------------------------|
E|--------------------------------|-------------------------------|

   A7

e|--5p3-----5p3-----5p3-----5p3---|-5p3-----5p3-----5p3-----5p3---|
B|-------5-------5-------5-------5|------5-------5-------5-------5|
G|--------------------------------|-------------------------------|
A|--------------------------------|-------------------------------|
E|--------------------------------|-------------------------------|
E|--------------------------------|-------------------------------|

   E7                                            B7

e|--5b--5b------------|---------5b---5---5--3--|--5--3------------|
B|--------------------|------------------------|---------5--3-----|
G|--------------------|------------------------|------------------|
A|--------------------|------------------------|------------------|
E|--------------------|------------------------|------------------|
E|--------------------|------------------------|------------------|

   A7                               E7

e|3h-5----3-----------------------|-------3b----------------------|
B|-------------5-----3----5-------|--5----------------------------|
G|--------------------------------|-------------------------------|
A|--------------------------------|-------------------------------|
E|--------------------------------|-------------------------------|
E|--------------------------------|-------------------------------|

   B7                                   E7

e|---------3------5b------------5---3-|---------------------------|
B|------5-----------------------------|--5------------------------|
G|------------------------------------|---------------------------|
A|------------------------------------|---------------------------|
E|------------------------------------|---------------------------|
E|------------------------------------|---------------------------|
        
        
 
 
Info Show/Hide: Song Information
Stats Song Stats
Rate Show/Hide: Rate this Song
Top  

Song Info  Four Note Solo - Griff Hamlin
Four Note Solo - Griff Hamlin
Griff Hamlin has been fortunate enough to have made his living for his entire adult life as a musician. He has a successful and varied career that has spanned nearly 3 decades. He keeps active as a session and performing guitarist and vocalist for a wide variety of musical groups.

In the last several years, however, his focus has turned almost entirely to teaching and utilizing the internet to that end.

- - - - - - - - - - - - - - - - - - - - - - - - - - - - - - - - -

Learn To Play Blues Guitar With DVD Video Instruction

Whether You Want To Be The Next Clapton, Or Just Have Some Fun Playing On Your Own Back Porch, You'll Have A Blast With This Simple, Step-By-Step Method.

Learning to play blues guitar has never been so simple, or so enjoyable

This step-by-step, video instruction course contains everything you'll need to really learn the blues inside and out. These are the exact same lessons that thousands of students, many of them just like you, have used to learn how to play blues guitar.

And most importantly, you'll have fun and be on your way to playing the blues from the very first lesson.

Source: BluesGuitarUnleashed.com

Rate this Song  Four Note Solo - Griff Hamlin




Song Stats  Four Note Solo - Griff Hamlin
Adder: Bill Charrette [ willc ]
Date: 11/8/2012
Updated: 10/31/2016
Tab By: willc
Rated: (4) Hot! Popular!
Views: 390
pdf Hits: 122
Genre: Licks
 
  Previous Lick | Next Lick