Good Morning: Guitar Player
Playing on the Porch Part 1   Previous Lick | Next Lick

Audio, Chords & Tab View pdf to Save / Print composition pdf
Playing on the Porch Part 1 - Griff Hamlin
* Audio file extracted from contributor’s website

Playing on the Porch Part 1 - Griff Hamlin  (4/4 - Key E)

Play a Cool Blues Tune on your own - No Accompaniment 
-----------------------------------------------------

Key E:
-----

 
   Lick 1                Lick 2                Lick 3
      _ _   _               _ _   _               _ _   _  
   | | | | | | |         | | | | | | |         | | | | | | |
e|---3-0-3-0-------|  e|-------0---------|  e|---------0---0---|
B|-----------3-----|  B|-----3-----------|  B|-------0---3-----|
G|-----------------|  G|---4-----2p0-----|  G|---2b------------|
D|-----------------|  D|-------------2---|  D|-----------------|
A|-----------------|  A|-----------------|  A|-----------------|
E|-----------------|  E|-----------------|  E|-----------------|

   Lick 4                Lick 5
      _ _   _               _ _   _ _ 
   | | | | | | |         | | | | | | | |
e|---------0-3-0---|  e|-----------------|
B|---3-0-3---------|  B|---3-0-3---------|
G|-----------------|  G|---------2p0-----|
D|-----------------|  D|-------------2---|
A|-----------------|  A|-----------------|
E|-----------------|  E|-----------------|

   Lick 6 (Turnaround)
      _   _ _   _ _       _ _ 
   | | | | | | | | |   | | | | | |
e|-------------------|-------------------|
B|-------------------|-------------------|
G|-------------------|-------------------|
D|---2-2-2-0---------|-2-----------------|
A|-----------2-0-----|---0-1-2(2)--------|
E|---------------3-0-|-------------------| 


*:·..·:*¨¨*:·..·:*¨¨*:·..·:*¨¨*:·..·:*¨¨*:·..·:*¨¨*:·..·:*


12 Bar Blues Progression Key E
------------------------------


   E (lick 1)        E (Lick 2)        E (Lick 3)        E (Lick 4)
      _ _   _           _ _   _ _         _ _ _   _         _ _   _ _  
   | | | | | | |     | | | | | | | |   | | | | | | | |   | | | | | | | |
e|-0-3-0-3-0-------|-0-----0---------|-0-------0---0---|-0-------0-3-0---|
B|-0---------3-----|-0---3-----------|-0-----0---3-----|-0-3-0-3---------|
G|-1---------------|-1-4-----2p0-----|-1-2b------------|-1---------------|
D|-2---------------|-2-----------2---|-2---------------|-2---------------|
A|-2---------------|-2---------------|-2---------------|-2---------------|
E|-0---------------|-0---------------|-0---------------|-0---------------|


   A (Lick 5)        A (Lick 1)        E (Lick 2)        E (Lick 3)
      _ _   _ _         _ _   _           _ _   _ _         _ _ _   _  
   | | | | | | | |   | | | | | | |     | | | | | | | |   | | | | | | | |
e|-0---------------|-0-3-0-3-0-------|-0-----0---------|-0-------0---0---|
B|-2-3-0-3---------|-2---------3-----|-0---3-----------|-0-----0---3-----|
G|-2-------2p0-----|-2---------------|-1-4-----2p0-----|-1-2b------------|
D|-2-----------2---|-2---------------|-2-----------2---|-2---------------|
A|-0---------------|-0---------------|-2---------------|-2---------------|
E|-----------------|-----------------|-0---------------|-0---------------|


   B7 (Lick 4)       A (Lick 5)        E (Lick 6 - Turnaround)
      _ _   _ _         _ _   _ _         _   _ _   _ _       _ _ 
   | | | | | | | |   | | | | | | | |   | | | | | | | | |   | | | | | |
e|-2-------0-3-0---|-0---------------|-0-----------------|---------------|
B|-0-3-0-3---------|-2-3-0-3---------|-0-----------------|---------------|
G|-2---------------|-2-------2p0-----|-1-----------------|---------------|
D|-1---------------|-2-----------2---|-2-2-2-2-0---------|-2-------------|
A|-2---------------|-0---------------|-2---------2-0-----|---0-1-2(2)----|
E|-----------------|-----------------|-0-------------3-0-|---------------|


*:·..·:*¨¨*:·..·:*¨¨*:·..·:*¨¨*:·..·:*¨¨*:·..·:*¨¨*:·..·:*


Key A (Transposed - Original Key E):
-----
 
   Lick 1                Lick 2                Lick 3
      _ _   _               _ __   _               _ _   _  
   | | | | | | |         | | |  | | | |         | | | | | | |
e|---8-5-8-5-------|  e|-----------------|  e|----------5---5--|
B|-----------8-----|  B|-----8-10--------|  B|--------5---8----|
G|-----------------|  G|---9------7p5----|  G|----7b-----------|
D|-----------------|  D|-------------7---|  D|-----------------|
A|-----------------|  A|-----------------|  A|-----------------|
E|-----------------|  E|-----------------|  E|-----------------|

   Lick 4                Lick 5
      _ _   _               _ _   _ _ 
   | | | | | | |         | | | | | | | |
e|---------5-8-5---|  e|-----------------|
B|---8-5-8---------|  B|---8-5-8---------|
G|-----------------|  G|---------7p5-----|
D|-----------------|  D|-------------7---|
A|-----------------|  A|-----------------|
E|-----------------|  E|-----------------|

   Lick 6 (Turnaround)
      _   _ _   _ _       _ _ 
   | | | | | | | | |   | | | | | |
e|-------------------|-------------------|
B|-------------------|-------------------|
G|-------------------|-------------------|
D|---7-7-7-5---------|-7-----------------|
A|-----------7-5-----|---5-6-7(7)--------|
E|---------------8-5-|-------------------|
        
 
 
Info Show/Hide: Song Information
Stats Song Stats
Rate Show/Hide: Rate this Song
 

Song Info  Playing on the Porch Part 1 - Griff Hamlin
Playing on the Porch Part 1 - Griff Hamlin
Griff Hamlin has been fortunate enough to have made his living for his entire adult life as a musician. He has a successful and varied career that has spanned nearly 3 decades. He keeps active as a session and performing guitarist and vocalist for a wide variety of musical groups.

In the last several years, however, his focus has turned almost entirely to teaching and utilizing the internet to that end.

- - - - - - - - - - - - - - - - - - - - - - - - - - - - - - - - - - - - - - - -

Learn To Play Blues Guitar With DVD Video Instruction

Whether You Want To Be The Next Clapton, Or Just Have Some Fun Playing On Your Own Back Porch, You'll Have A Blast With This Simple, Step-By-Step Method.

Learning to play blues guitar has never been so simple, or so enjoyable

This step-by-step, video instruction course contains everything you'll need to really learn the blues inside and out. These are the exact same lessons that thousands of students, many of them just like you, have used to learn how to play blues guitar.

And most importantly, you'll have fun and be on your way to playing the blues from the very first lesson.

Source: BluesGuitarUnleashed.com

Rate this Song  Playing on the Porch Part 1 - Griff Hamlin




Song Stats  Playing on the Porch Part 1 - Griff Hamlin
Adder: Bill Charrette [ willc ]
Date: 10/23/2012
Updated: 3/4/2014
Tab By: willc
Rated: (5) Hot! Popular!
Views: 442
pdf Hits: 266
Genre: Licks
 
  Previous Lick | Next Lick