Good Morning: Guitar Player
Someone Like You   Previous Song | Next Song

Audio, Chords & Tab View pdf to Save / Print composition pdf
Someone Like You - Adele
* Audio file gathered from willc's personal music library

Someone Like You - Adele  (4/4)

Intro: A, Dbm/Ab*, F#m,  D


Verse 1:
-------

  A                Dbm/Ab
I heard that you're settled down
        F#m
That you found a girl
          D
And you're married now


Verse 2:
-------

  A              Dbm/Ab
I heard that your dreams came true
         F#m
Guess she gave you things
        D
I didn't give to you


Verse 3:
-------

  A                    Dbm/Ab
Old friend why are you so shy
        F#m
It ain't like you to hold back
  D
Or hide from the light


Pre Chorus:
----------

[E                           F#m          ]
I hate to turn up out of the blue uninvited
D
But I couldn't stay away I couldn't fight it
[   E
I'd hoped you'd see my face
    F#m                          ] D                [ D hold 1/2 bar ]
And that you'd be reminded that for me it isn't over


Chorus:
------

[A                E              ][F#m   D  ]
Never mind, I'll find someone like you
     [ A               E       ][F#m     D  ]
I wish nothing but the best for you  too
     [ A           E      ][F#m          D  ]
Don't forget me I beg I remember you said
           [ A                 E                  ][ F#m    D  ]
Sometimes it lasts in love but sometimes it hurts instead, yeah
           [ A                 E                  ][ F#m    D  ]  [ D  1/2 bar ]
Sometimes it lasts in love but sometimes it hurts instead, yeah


Verse 4:
-------

A              Dbm/Ab
You'd know how time flies
    F#m
Only yesterday
       D
was the time of our lives


Verse 5:
-------

       A
We were born and raised
    Dbm/Ab
In a summer haze
     F#m                     D
Bound by the surprise of our glory days


Pre Chorus:
----------

[E                           F#m          ]
I hate to turn up out of the blue uninvited
D
But I couldn't stay away I couldn't fight it
[   E
I'd hoped you'd see my face
    F#m                          ] D                [ D hold 1/2 bar ]
And that you'd be reminded that for me it isn't over


Chorus:
------

[A                E              ][F#m   D  ]
Never mind, I'll find someone like you
     [ A               E       ][F#m     D  ]
I wish nothing but the best for you  too
     [ A           E      ][F#m          D  ]
Don't forget me I beg I remember you said
           [ A                 E                  ][ F#m    D  ]
Sometimes it lasts in love but sometimes it hurts instead, yeah


Bridge:
------

[E
Nothing compares no worries or cares
F#m                                   ]
Regrets and mistakes their memories make
D
Who would have known how
     [ Bm    Dbm/Ab    ]  D
Bittersweet this would taste


Chorus:
------

[A                E              ][F#m   D  ]
Never mind, I'll find someone like you
     [ A               E       ][F#m     D  ]
I wish nothing but the best for you  too
     [ A           E      ][F#m          D  ]
Don't forget me I beg I remember you said
           [ A                 E                  ][ F#m    D  ]
Sometimes it lasts in love but sometimes it hurts instead, yeah


Chorus:
------

[A                E              ][F#m   D  ]
Never mind, I'll find someone like you
     [ A               E       ][F#m     D  ]
I wish nothing but the best for you  too
     [ A           E      ][F#m          D  ]
Don't forget me I beg I remember you said
           [ A                 E                  ][ F#m    D  ]
Sometimes it lasts in love but sometimes it hurts instead, yeah
           [ A                 E                  ][ F#m    D  ]
Sometimes it lasts in love but sometimes it hurts instead, yeah
           [ A                 E                  ][ F#m    D  ]
Sometimes it lasts in love but sometimes it hurts instead, yeah

Fade out...


*:•..•:*¨¨*:•..•:*¨¨*:•..•:*¨¨*:•..•:*¨¨*:•..•:*¨¨*:•..•:*


Someone Like You (Fingerstyle) - Adele  (4/4)
--------------------------------------

Intro:
-----
   A                                 Dbm/Ab
    _ _ _   _ _ _   _ _ _   _ _ _     _ _ _   _ _ _   _ _ _   _ _ _ 
   | | | | | | | | | | | | | | | |   | | | | | | | | | | | | | | | |
e|-----0-------0-------0-------0---|-----0-------0-------0-------0---|
B|---2---2---2---2---2---2---2---2-|---2---2---2---2---2---2---2---2-|
G|---------2-------2-------2-------|---------1-------1-------1-------|
D|---------------------------------|---------------------------------|
A|-0-------------------------------|---------------------------------|
E|---------------------------------|-4-------------------------------|

   F#m                               D
    _ _ _   _ _ _   _ _ _   _ _ _     _ _ _   _ _ _   _ _ _   _ _ _ 
   | | | | | | | | | | | | | | | |   | | | | | | | | | | | | | | | |
e|-----2-------2-------2-------2---|-----2-------2-------2-------2---|
B|---2---2---2---2---2---2---2---2-|---3---3---3---3---3---3---3---3-|
G|---------2-------2-------2-------|---------2-------2-------2-------|
D|---------------------------------|-0-------------------------------|
A|---------------------------------|---------------------------------|
E|-2-------------------------------|---------------------------------|


Verse 1, 2 & 3:
--------------
   A                                 Dbm/Ab
    _ _ _   _ _ _   _ _ _   _ _ _     _ _ _   _ _ _   _ _ _   _ _ _ 
   | | | | | | | | | | | | | | | |   | | | | | | | | | | | | | | | |
e|-----0-------0-------0-------0---|-----0-------0-------0-------0---|
B|---2---2---2---2---2---2---2---2-|---2---2---2---2---2---2---2---2-|
G|---------2-------2-------2-------|---------1-------1-------1-------|
D|---------------------------------|---------------------------------|
A|-0-------------------------------|---------------------------------|
E|---------------------------------|-4-------------------------------|
1  I heard that you're              settled down               That you 
2  I heard that your                dreams came true           Guess she
3  Old friend          why are you  so shy                     It ain't 

   F#m                               D
    _ _ _   _ _ _   _ _ _   _ _ _     _ _ _   _ _ _   _ _ _   _ _ _ 
   | | | | | | | | | | | | | | | |   | | | | | | | | | | | | | | | |
e|-----2-------2-------2-------2---|-----2-------2-------2-------2---|
B|---2---2---2---2---2---2---2---2-|---3---3---3---3---3---3---3---3-|
G|---------2-------2-------2-------|---------2-------2-------2-------|
D|---------------------------------|-0-------------------------------|
A|---------------------------------|---------------------------------|
E|-2-------------------------------|---------------------------------|
1  found a girl                      married now
2  gave you things         I didn't  give to you
3  like you to hold back         or  hide from the light


Pre Chorus:
----------
   E               F#m               D
    _ _ _   _ _ _   _ _ _   _ _ _     _ _ _   _ _ _   _ _ _   _ _ _ 
   | | | | | | | | | | | | | | | |   | | | | | | | | | | | | | | | |
e|-----0-------0-------2-------2---|-----2-------2-------2-------2---|
B|---0---0---0---0---2---2---2---2-|---3---3---3---3---3---3---3---3-|
G|---------1---------------2-------|---------2-------2-------2-------|
D|---------------------------------|-0-------------------------------|
A|---------------------------------|---------------------------------|
E|-0---------------2---------------|---------------------------------|
  I hate to turn... blue uninvited   But I couldn't stay away I could...

   E               F#m               D
    _ _ _   _ _ _   _ _ _   _ _ _     _ _ _   _ _ _   _ _ _   _ _ _ 
   | | | | | | | | | | | | | | | |   | | | | | | | | | | | | | | | |
e|-----0-------0-------2-------2---|-----2-------2-------2-------2---|
B|---0---0---0---0---2---2---2---2-|---3---3---3---3---3---3---3---3-|
G|---------1---------------2-------|---------2-------2-------2-------|
D|---------------------------------|-0-------------------------------|
A|---------------------------------|---------------------------------|
E|-0---------------2---------------|---------------------------------|
   I'd hoped...And that you'd be...  me it isn't

   D (hold)
    _ _ _   _ _ _
   | | | | | | | |
e|-----2-------2---|
B|---3---3---3---3-|
G|-2-------2-------|
D|-----------------|
A|-----------------|
E|-----------------|
   over


Chorus:
------
   A               E                 F#m             D
    _ _ _   _ _ _   _ _ _   _ _ _     _ _ _   _ _ _   _ _ _   _ _ _ 
   | | | | | | | | | | | | | | | |   | | | | | | | | | | | | | | | |
e|-----0-------0-------0-------0---|-----2-------2-------2-------2---|
B|---2---2---2---2---0---0---0---0-|---2---2---2---2---3---3---3---3-|
G|---------2---------------1-------|---------2---------------2-------|
D|---------------------------------|-----------------0---------------|
A|-0-------------------------------|---------------------------------|
E|-----------------0---------------|-2-------------------------------|
   Never mind, I'll find someone     like you                I wish 
   nothing but the best for          you              too    don't
   forget me I    beg I          remember you         said   Sometimes it
   lasts in love but sometimes it... instead                 Sometimes it
                                                                     [ D  1/2 bar ]
   lasts in love but sometimes it... instead         yeah


Verses 4 & 5:
------------
   A                                 Dbm/Ab
    _ _ _   _ _ _   _ _ _   _ _ _     _ _ _   _ _ _   _ _ _   _ _ _ 
   | | | | | | | | | | | | | | | |   | | | | | | | | | | | | | | | |
e|-----0-------0-------0-------0---|-----0-------0-------0-------0---|
B|---2---2---2---2---2---2---2---2-|---2---2---2---2---2---2---2---2-|
G|---------2-------2-------2-------|---------1-------1-------1-------|
D|---------------------------------|---------------------------------|
A|-0-------------------------------|---------------------------------|
E|---------------------------------|-4-------------------------------|
4  You'd know how                   time flies                 Only
5  born and raised          On a    summer haze                bound

   F#m                               D
    _ _ _   _ _ _   _ _ _   _ _ _     _ _ _   _ _ _   _ _ _   _ _ _ 
   | | | | | | | | | | | | | | | |   | | | | | | | | | | | | | | | |
e|-----2-------2-------2-------2---|-----2-------2-------2-------2---|
B|---2---2---2---2---2---2---2---2-|---3---3---3---3---3---3---3---3-|
G|---------2-------2-------2-------|---------2-------2-------2-------|
D|---------------------------------|-0-------------------------------|
A|---------------------------------|---------------------------------|
E|-2-------------------------------|---------------------------------|
4  yesterday                was the  time of our lives       We were
5  by the surprise          of our   glory days


Pre Chorus:
----------
   E               F#m               D
    _ _ _   _ _ _   _ _ _   _ _ _     _ _ _   _ _ _   _ _ _   _ _ _ 
   | | | | | | | | | | | | | | | |   | | | | | | | | | | | | | | | |
e|-----0-------0-------2-------2---|-----2-------2-------2-------2---|
B|---0---0---0---0---2---2---2---2-|---3---3---3---3---3---3---3---3-|
G|---------1---------------2-------|---------2-------2-------2-------|
D|---------------------------------|-0-------------------------------|
A|---------------------------------|---------------------------------|
E|-0---------------2---------------|---------------------------------|
  I hate to turn... blue uninvited   But I couldn't stay away I could...

   E               F#m               D
    _ _ _   _ _ _   _ _ _   _ _ _     _ _ _   _ _ _   _ _ _   _ _ _ 
   | | | | | | | | | | | | | | | |   | | | | | | | | | | | | | | | |
e|-----0-------0-------2-------2---|-----2-------2-------2-------2---|
B|---0---0---0---0---2---2---2---2-|---3---3---3---3---3---3---3---3-|
G|---------1---------------2-------|---------2-------2-------2-------|
D|---------------------------------|-0-------------------------------|
A|---------------------------------|---------------------------------|
E|-0---------------2---------------|---------------------------------|
   I'd hoped...And that you'd be...  me it isn't

   D (hold)
    _ _ _   _ _ _
   | | | | | | | |
e|-----2-------2---|
B|---3---3---3---3-|
G|-2-------2-------|
D|-----------------|
A|-----------------|
E|-----------------|
   over


Chorus:
------
   A               E                 F#m             D
    _ _ _   _ _ _   _ _ _   _ _ _     _ _ _   _ _ _   _ _ _   _ _ _ 
   | | | | | | | | | | | | | | | |   | | | | | | | | | | | | | | | |
e|-----0-------0-------0-------0---|-----2-------2-------2-------2---|
B|---2---2---2---2---0---0---0---0-|---2---2---2---2---3---3---3---3-|
G|---------2---------------1-------|---------2---------------2-------|
D|---------------------------------|-----------------0---------------|
A|-0-------------------------------|---------------------------------|
E|-----------------0---------------|-2-------------------------------|
   Never mind, I'll find someone     like you                I wish 
   nothing but the best for          you              too    don't
   forget me I    beg I          remember you         said   Sometimes it
   lasts in love but sometimes it... instead                 Sometimes it


Bridge:
------
   E                                 F#m
    _ _ _   _ _ _   _ _ _   _ _ _     _ _ _   _ _ _   _ _ _   _ _ _ 
   | | | | | | | | | | | | | | | |   | | | | | | | | | | | | | | | |
e|-----0-------0-------0-------0---|-----2-------2-------2-------2---|
B|---0---0---0---0---0---0---0---0-|---2---2---2---2---2---2---2---2-|
G|---------1-------1-------1-------|---------2-------2-------2-------|
D|---------------------------------|---------------------------------|
A|---------------------------------|---------------------------------|
E|-0-------------------------------|-2-------------------------------|
   Nothing compares no worries...    Regrets and mistakes their mem...

   D                                 Bm              Dbm/Ab
    _ _ _   _ _ _   _ _ _   _ _ _     _ _ _   _ _ _   _ _ _   _ _ _ 
   | | | | | | | | | | | | | | | |   | | | | | | | | | | | | | | | |
e|-----2-------2-------2-------2---|-----2-------2-------0-------0---|
B|---3---3---3---3---3---3---3---3-|---3---3---3---3---2---2---2---0-|
G|---------2-------2-------2-------|---------2---------------1-------|
D|-0-------------------------------|---------------------------------|
A|---------------------------------|-2-------------------------------|
E|---------------------------------|-----------------4---------------|
   Who would have known how bitter   sweet            this would

   D 
    _ _ _   _ _ _   _ _ _   _ _ _ 
   | | | | | | | | | | | | | | | |
e|-----2-------2-------2-------2---|
B|---3---3---3---3---3---3---3---3-|
G|---------2-------2-------2-------|
D|-0-------------------------------|
A|---------------------------------|
E|---------------------------------|
   take


Chorus:
------

[A                E              ][F#m   D  ]
Never mind, I'll find someone like you
     [ A               E       ][F#m     D  ]
I wish nothing but the best for you  too
     [ A           E      ][F#m          D  ]
Don't forget me I beg I remember you said
           [ A                 E                  ][ F#m    D  ]
Sometimes it lasts in love but sometimes it hurts instead, yeah


Chorus:
------
   A               E                 F#m             D
    _ _ _   _ _ _   _ _ _   _ _ _     _ _ _   _ _ _   _ _ _   _ _ _ 
   | | | | | | | | | | | | | | | |   | | | | | | | | | | | | | | | |
e|-----0-------0-------0-------0---|-----2-------2-------2-------2---|
B|---2---2---2---2---0---0---0---0-|---2---2---2---2---3---3---3---3-|
G|---------2---------------1-------|---------2---------------2-------|
D|---------------------------------|-----------------0---------------|
A|-0-------------------------------|---------------------------------|
E|-----------------0---------------|-2-------------------------------|
   Never mind, I'll find someone     like you                I wish 
   nothing but the best for          you              too    don't
   forget me I    beg I          remember you         said   Sometimes it
   lasts in love but sometimes it... instead                 Sometimes it


Chorus... fade out


*:•..•:*¨¨*:•..•:*¨¨*:•..•:*¨¨*:•..•:*¨¨*:•..•:*¨¨*:•..•:*


*    Dbm/Ab

   E A D G B e 
  \o x x o o o/
   -----------
1  | | | @ | |
   -----------
2  | | | | @ |
   -----------
3  | | | | | |
   -----------
4  @ | | | | |
   -----------
        
 
 
Info Show/Hide: Song Information
Stats Song Stats
Rate Show/Hide: Rate this Song
 

Song Info  Someone Like You - Adele
Someone Like You - Adele
Someone like You is a song by English singer-songwriter Adele. Written by Adele and Dan Wilson for her second studio album 21. The pop ballad was inspired by a broken relationship of hers, and lyrically it speaks of Adele coming to terms with it.

XL Recordings released the song as the second single from the album on 24 January 2011 in the United Kingdom and on 9 August 2011 in the United States. Accompanied only by a piano in the song (played by co-writer Wilson), Adele sings about the end of the relationship with her ex-boyfriend.

The song received positive reviews from music critics who chose the song as a highlight on the album and praised its simple sound. The lyrics and Adele's vocal performance in the song were also praised.

Source: Wikipedia - The Free Encyclopedia

Rate this Song  Someone Like You - Adele




Song Stats  Someone Like You - Adele
Adder: Bill Charrette [ willc ]
Date: 8/13/2012
Tab By: willc
Rated: (4) Hot! Popular!
Views: 521
pdf Hits: 307
Genre: Pop
 
  Previous Song | Next Song