Good Evening: Guitar Player
Never Going Back Again   Previous Song | Next Song

Audio, Chords & Tab View pdf to Save / Print composition pdf
Never Going Back Again - Fleetwood Mac
* Audio file gathered from BigGreenC's personal music library

Never Going Back Again - Fleetwood Mac  (4/4 - Capo 6th fret)

Introduction (Verse Riff)

Verse:
   C   G       C             C   G     C
          _         _   _                 _     _
   | | | | |   | | | | | |   | | | |   | | | | | |
e|-----------|---3-----3---|---------|---3-----3---|
B|---1---0h1-|-----1-------|---1---3-|-----1-------|
G|-----------|-------------|---------|-------------|
D|---2---0h2-|---2-------2-|---2---0-|---2-------2-|
A|-3---------|-3-----------|-3-------|-3-----------|
E|-----3-----|-------3-----|-----3---|---------3---|

   G7                              C     G       C   G
    _   _     _     _     _   _     _     _ 
   | | | | | | |   | | | | | | |   | | | | | |   | | | |
e|-0-----0---0---|---0---0-----0-|-------------|-----3---|
B|---3-----3---3-|-----3---3-----|-1-----3s5-3-|-1-------|
G|---------------|---------------|-------------|---------|
D|-----3-----3---|-----3-----3---|-----2-----0-|---2---0-|
A|---------------|---------------|-3-----------|-3-------|
E|-3-------3-----|-3-----3-------|-------3-----|-----3---|


Chorus:
   Cm
                 _   _   _   _                  _   _   _   _
   |  |  |  |   | | | | | | | |   |  |  |  |   | | | | | | | |
e|----8-------|-8-----8-----8---|----8-------|-8-----8-----8---|
B|---------12-|---9-----9-----9-|---------12-|---9-----9-----9-|
G|------------|-----------------|------------|-----------------|
D|---10----12-|----10----10-----|---10----12-|----10----10-----|
A|------10----|-----------------|------10----|-----------------|
E|-8----------|-8-------8-------|-8----------|-8-------8-------|

   Cm                             Am  Em      C   G
                 _   _   _   _         _ 
   |  |  |  |   | | | | | | | |   | | | | |   | | | |
e|----8-------|-8-----8-----8---|-----------|-----3---|
B|---------12-|---9-----9-----9-|-------0---|-1-------|
G|------------|-----------------|---5-------|---------|
D|---10----12-|----10----10-----|---------2-|---2-----|
A|------10----|-----------------|---7-------|-3-----2-|
E|-8----------|-8-------8-------|-5---0-----|-----3---|


She broke down and let me in
Made me see where I've been

Chorus:
Been down one time
Been down two times
I'm never going back again

Solo (Verse Riff 3 times and Chorus Riff 1 time)

You don't know what it means to win
Come down and see me again

Chorus

Solo (Verse Riff)
        
  View pdf to Save / Print composition pdf
 
 
Info Show/Hide: Song Information
Stats Song Stats
Rate Show/Hide: Rate this Song
 

Song Info  Never Going Back Again - Fleetwood Mac
Never Going Back Again - Fleetwood Mac
Never Going Back Again, a song about the illusion of thinking that sadness will never occur again once feeling content with life. The lines "Been down one time/Been down two times" are in reference to the lyricist's efforts when persuading the woman to give him a chance

It was also created as a simple acoustic demo, titled "Brushes"; Fleetwood Mac then added further instrumental audio tracks to make it more layered. Inspired by triple step dancing patterns,

Source: Wikipedia, The Free Encyclopedia

Rate this Song  Never Going Back Again - Fleetwood Mac




Song Stats  Never Going Back Again - Fleetwood Mac
Adder: Cindy Green [ BigGreenC ]
Date: 7/13/2012
Tab By: willc
Rated: (3) Hot! Popular!
Views: 594
pdf Hits: 242
Genre: Rock
 
  Previous Song | Next Song