Good Evening: Guitar Player
Perfect   Previous Song | Next Song

Audio, Chords & Tab View pdf to Save / Print composition pdf
Perfect - Ed Sheeran
* Audio file gathered from willc's personal music library

Perfect - Ed Sheeran  (4/4 - Capo 1st Fret)

Tablature: [NOTE: Lyrics and Chords below]
---------

Verse:
-----
   G                         Em
    _ _   _ _   _ _   _ _     _ _   _ _   _ _   _ _
   | | | | | | | | | | | |   | | | | | | | | | | | |
e|-------------------------|-------------------------|
B|---3-3---3-3---3-3---3-3-|---3-3---3-3---3-3---3-3-|
G|---0-0---0-0---0-0---0-0-|---0-0---0-0---0-0---0-0-|
D|-------------------------|-------------------------|
A|-------------------------|-------------------------|
E|-3-----3-----3-----3-----|-0-----0-----0-----0-----|
1. I found a love for        me

   C                         D
    _ _   _ _   _ _   _ _     _ _   _ _   ___ _   _ _
   | | | | | | | | | | | |   | | | | | | |   | | | | |
e|-------------------------|-------------2h3-2-3-------|
B|---3-3---3-3---3-3---3-3-|---3-3---3-3-3---3-3---3-3-|
G|---0-0---0-0---0-0---0-0-|---2-2---2-2-----------2-2-|
D|-------------------------|-0-----0-----0-------0-----|
A|-3-----3-----3-----3-----|---------------------------|
E|-------------------------|---------------------------|
1. Darling.... and follow my lead
 
   G                         Em
    _ _   _ _   _ _   _ _     _ _   _ _   _ _   _ _
   | | | | | | | | | | | |   | | | | | | | | | | | |
e|-------------------------|-------------------------|
B|---3-3---3-3---3-3---3-3-|---3-3---3-3---3-3---3-3-|
G|---0-0---0-0---0-0---0-0-|---0-0---0-0---0-0---0-0-|
D|-------------------------|-------------------------|
A|-------------------------|-------------------------|
E|-3-----3-----3-----3-----|-0-----0-----0-----0-----|
1. Well I.... girl beautiful & sweet

   C                         D
    _ _   _ _   _ _   _ _     _ _   _ 
   | | | | | | | | | | | |   | | | | |  |  |
e|-------------------------|-------2h3-(3)-2-|
B|---3-3---3-3---3-3---3-3-|---3-3-3-------3-|
G|---0-0---0-0---0-0---0-0-|---2-2---------2-|
A|-------------------------|-0-----0-------0-|
A|-3-----3-----3-----3-----|-----------------|
E|-------------------------|-----------------|
1. I never knew....waiting for me.  Cause we were.. when we

 
Pre-Chorus:
----------
   G                         Em
    _ _   _ _   _ _   _ _     _ _   _ _   _ _   _ _
   | | | | | | | | | | | |   | | | | | | | | | | | |
e|-------------------------|-------------------------|
B|---3-3---3-3---3-3---3-3-|---3-3---3-3---3-3---3-3-|
G|---0-0---0-0---0-0---0-0-|---0-0---0-0---0-0---0-0-|
D|-------------------------|-------------------------|
A|-------------------------|-------------------------|
E|-3-----3-----3-----3-----|-0-----0-----0-----0-----|
1. Fell in love Not knowing what it was, I will not

   C                         G           D
    _ _   _ _   _ _   _ _     _ _   _ _   _ _   _ _
   | | | | | | | | | | | |   | | | | | | | | | | | |
e|-------------------------|-------------------------|
B|---3-3---3-3---3-3---3-3-|---3-3---3-3---3-3---3-3-|
G|---0-0---0-0---0-0---0-0-|---0-0---0-0---2-2---2-2-|
D|-------------------------|-------------0-----0-----|
A|-3-----3-----3-----3-----|-------------------------|
E|-------------------------|-3-----3-----------------|
1. give you up this          ti           ime

   G                         Em
    _ _   _ _   _ _   _ _     _ _   _ _   _ _   _ _
   | | | | | | | | | | | |   | | | | | | | | | | | |
e|-------------------------|-------------------------|
B|---3-3---3-3---3-3---3-3-|---3-3---3-3---3-3---3-3-|
G|---0-0---0-0---0-0---0-0-|---0-0---0-0---0-0---0-0-|
D|-------------------------|-------------------------|
A|-------------------------|-------------------------|
E|-3-----3-----3-----3-----|-0-----0-----0-----0-----|
1. Darling just... heart..all I own

   C                         D
    _ _   _ _   _ _   _ _     _ _   _ 
   | | | | | | | | | | | |   | | | | |  |  |
e|-------------------------|-------2h3-(3)-2-|
B|---3-3---3-3---3-3---3-3-|---3-3-3-------3-|
G|---0-0---0-0---0-0---0-0-|---2-2---------2-|
D|-------------------------|-0-----0-------0-|
A|-3-----3-----3-----3-----|-----------------|
E|-------------------------|-----------------|
1. And in your eyes...holding mine


Chorus:
------

Suggested Picking Pattern
-------------------------

   |  |  |  |  |  |
e|----------@-------|
B|-------@-----@----|
G|----@-----------@-|
D|-@----------------|
A|-@----------------|
E|-@----------------|
  Root


    [ Em   C           ][ G          D  ]         [ Em
Baby, I'm dancing in the dark, with you between my arms
C             ][ G     D             ][ Em
Barefoot on the grass, listening to our favorite song
          C             ][ G                 D           ][ Em
When you said you looked a mess, I whispered underneath my breath
         C              ][G        D           ][ G D/F# Em D ][ C  D  ]
But you heard it, darling you look perfect tonight


Verse: (see above tab)
-----
               G                    Em
Well I found a woman, stronger than anyone I know
              C                                          D
She shares my dreams, I hope that someday I'll share her home
           G             Em
I found a love, to carry more than just my secrets
         C                              D
To carry love, to carry children of our own


Pre-Chorus: (see above tab)
----------
                             G                     Em
We are still kids, but we're so in love, fighting against all odds
             C              [G  D  ]
I know we'll be alright this ti-ime
             G                              Em
Darling just hold my hand, be my girl, I'll be your man
         C               D
I see my future in your eyes


Chorus:
------

    [ Em   C          ][ G          D  ]         [ Em
Baby, I'm dancing in the dark, with you between my arms
C             ][ G     D             ][ Em
Barefoot on the grass, listening to our favorite song
        C             ][G                 D      ] [Em
When I saw you in that dress, looking so beautiful I don't 
 C            ][    G          D    ]
deserve this, darling you look perfect


Interlude:
---------
                 G                 Em
        _   _     _   _     _ _       _ _      _ _ _
   | | | | | | | | | | | | | | |   | | | | |  | | | |
e|-------------|-----------------|--------------------|
B|-------------|-----------------|--------------------|
G|---------0-2-|-2s4-------4s2p0-|-2-2-3p2p0------0h2-|
D|-----0h2-----|-----------------|------------0h2-----|
A|-------------|-----------------|--------------------|
E|-------------|-----------------|--------------------|
   C                          D
    _ _    _ _   _ _   _ _           _ _ 
   | | |  | | | | | | | | |   | | | | | |  
e|--------------------------|-------------|
B|--------------------------|-----3-5-0---|
G|-2s4--4s2-0-2-4s5-4---0h2-|-2---------2-|
D|--------------------------|-0-----------|
A|--------------------------|-------------|
E|--------------------------|-------------|


Chorus:
------

    [ Em   C          ][ G          D  ]         [ Em
Baby, I'm dancing in the dark, with you between my arms
C             ][ G     D             ][ Em
Barefoot on the grass, listening to our favorite song
          C         ][ G            D          ][ Em
I have faith in what I see, now I know I have met an angel
    C       ][ G         D         ]
In person, and she looks perfect


Outro:
-----

[ G       C         ][Dadd4    D      ] [ G D/F# Em D ][ C  D  ]  G
I don't deserve this, you look perfect tonight


*:·..·:*¨¨*:·..·:*¨¨*:·..·:*¨¨*:·..·:*¨¨*:·..·:*¨¨*:·..·:*


Lyrics and Chords:
-----------------

Verse:
-----
          G        Em
I found a love for me
             C                            D
Darling just dive right in, and follow my lead
               G          Em
Well I found a girl beautiful and sweet
            C                                D
I never knew you were the someone waiting for me


Pre-Chorus:
----------
                                G
Cause we were just kids when we fell in love
            Em                      C               [G  D  ]
Not knowing what it was, I will not give you up this ti-ime
             G                           Em
Darling just kiss me slow, your heart is all I own
           C                      D
And in your eyes you're holding mine


Chorus:
------

    [ Em   C           ][ G          D  ]         [ Em
Baby, I'm dancing in the dark, with you between my arms
C             ][ G     D             ][ Em
Barefoot on the grass, listening to our favorite song
          C             ][ G                 D           ][ Em
When you said you looked a mess, I whispered underneath my breath
         C              ][G        D           ][ G D/F# Em D ][ C  D  ]
But you heard it, darling you look perfect tonight


Verse:
-----
               G                    Em
Well I found a woman, stronger than anyone I know
              C                                          D
She shares my dreams, I hope that someday I'll share her home
           G             Em
I found a love, to carry more than just my secrets
         C                              D
To carry love, to carry children of our own


Pre-Chorus:
----------
                             G                     Em
We are still kids, but we're so in love, fighting against all odds
             C              [G  D  ]
I know we'll be alright this ti-ime
             G                              Em
Darling just hold my hand, be my girl, I'll be your man
         C               D
I see my future in your eyes


Chorus:
------

    [ Em   C          ][ G          D  ]         [ Em
Baby, I'm dancing in the dark, with you between my arms
C             ][ G     D             ][ Em
Barefoot on the grass, listening to our favorite song
        C             ][G                 D      ] [Em
When I saw you in that dress, looking so beautiful I don't 
 C            ][    G          D       ]
deserve this, darling you look perfect tonight


Interlude:
---------

G    Em    C    D


Chorus:
------

    [ Em   C          ][ G          D  ]         [ Em
Baby, I'm dancing in the dark, with you between my arms
C             ][ G     D             ][ Em
Barefoot on the grass, listening to our favorite song
          C         ][ G            D          ][ Em
I have faith in what I see, now I know I have met an angel
    C       ][ G         D         ]
In person, and she looks perfect


Outro:
-----

[ G       C         ][Dadd4    D      ] [ G D/F# Em D ][ C  D  ]  G
I don't deserve this, you look perfect tonight
        
  View pdf to Save / Print composition pdf
 
 
Info Show/Hide: Song Information
Stats Song Stats
Rate Show/Hide: Rate this Song
 

Song Info  Perfect - Ed Sheeran
Perfect - Ed Sheeran
"Perfect" is a song by English singer-songwriter Ed Sheeran from his third studio album (2017). After the album's release it charted at number four on the UK Singles Chart. On 21 August 2017, Billboard announced that "Perfect" would be the fourth single from the album. The song was serviced to pop radio on 26 September 2017, as the third single from the album in the United States (fourth overall). The song eventually reached number one on the UK Singles Chart and the US Billboard Hot 100 in December 2017. "Perfect" became the UK Christmas number-one song for 2017, and also peaked at number one in sixteen other countries, including Australia, Canada, Ireland and New Zealand.

Video: https://www.youtube.com/watch?v=2Vv-BfVoq4g

Source: Wikipedia, the free encyclopedia

Rate this Song  Perfect - Ed Sheeran




Song Stats  Perfect - Ed Sheeran
Adder: Bill Charrette [ willc ]
Date: 1/3/2019
Updated: 4/4/2019
Tab By: willc
Rated: (1) Hot! Popular!
Views: 273
pdf Hits: 160
Genre: Pop
 
  Previous Song | Next Song