Good Morning: Guitar Player
Licks For Rock Soloing   Previous Lick | Next Lick

Audio, Chords & Tab View pdf to Save / Print composition pdf
Licks For Rock Soloing - Gary Potter
* Audio file extracted from contributor’s website

Licks For Rock Soloing - Gary Potter  (4/4 - Key A)

Lick 1:
    ___ ___     ___ ___     ___ ___ 
   |   |   |   |   |   |   |   |   |   |
e|-5--------------------------------------|
B|-----8p--5------------------------------|
G|-------------7---5-------7b--r-p-5------|
D|---------------------7---------------7v-|
A|----------------------------------------|
E|----------------------------------------|

Lick 2:
    ___ ___     ___ ___     ___ ___ 
   |   |   |   |   |   |   |   |   |   |
e|----------------------------------------|
B|----------------------------------------|
G|-7p--5-------5--------------------------|
D|---------7-------7---5------------------|
A|-----------------------7s5---3-------3v-|
E|---------------------------------5------|

Lick 3:
    ___ ___     ___ ___     ___     ___
   |   |   |   |   |   |   |   |   |   |
e|-------------------------8b------5v-----|
B|-------------5h--8p--5------------------|
G|-----5h--7------------------------------|
D|-7--------------------------------------|
A|----------------------------------------|
E|----------------------------------------|

Lick 4:
    ___ ___     ___ ___     ___ ___
   |   |   |   |   |   |   |   |   |   |
e|---------8------------------------------|
B|-8h-10------10p--8----------------------|
G|------------------9s-7p--5--------------|
D|-----------------------------7p--5------|
A|-------------------------------------7v-|
E|----------------------------------------|


*:·..·:*¨¨*:·..·:*¨¨*:·..·:*¨¨*:·..·:*¨¨*:·..·:*¨¨*:·..·:*


Connect all 4 licks to fit over 4 measures.
Note: 3rd lick changed a little bit


   Lick 1                  Lick 2
    _ _   _ _   __ _        _ _   _ _     _ _ 
   | | | | | | |  | | |    | | | | | |   | | | |
e|-5---------------------|------------------------|
B|---8p5-----------------|------------------------|
G|-------7-5---7b-rp5----|-7p5---5----------------|
D|-----------7--------7v-|-----7---7-5------------|
A|-----------------------|-------------7s5-3---3v-|
E|-----------------------|-------------------5----|

   Lick 3            Lick 4
    __ __   __ __     __ _    _ ___    _ _
   |  |  | |  |  |   |  | |  | |   |  | | | |
e|-----------------|------8--------------------|
B|---------5h-8p-5-|-8h10---10p8---------------|
G|----5h-7---------|-------------9s7p-5--------|
D|-7---------------|--------------------7p5----|
A|-----------------|------------------------7v-|
E|-----------------|---------------------------|
        
 
 
Info Show/Hide: Song Information
Stats Song Stats
Rate Show/Hide: Rate this Song
 

Song Info  Licks For Rock Soloing - Gary Potter
Licks For Rock Soloing - Gary Potter
Practice The Guitar.com is an interactive website that is meant to aid guitar players of all different levels in furthering their skill set.

This lick exercise is a combination of the four licks. Only start on this exercise if you feel that you are proficient with the four rock licks in this section.

The key to mastering this exercise is nailing the phrasing and connecting the licks the smoothest way possible. When you feel comfortable try playing over the backing tracks using one or more of these licks in a solo and mix them with your own ideas. That’s when the new musical ideas will really come out

Source: PracticeTheGuitar.com

Rate this Song  Licks For Rock Soloing - Gary Potter




Song Stats  Licks For Rock Soloing - Gary Potter
Adder: Bill Charrette [ willc ]
Date: 1/3/2017
Tab By: willc
Rated: (5) Hot! Popular!
Views: 590
pdf Hits: 345
Genre: Licks
 
  Previous Lick | Next Lick