Good Evening: Guitar Player
More Than a Feeling   Previous Song | Next Song

Audio, Chords & Tab View pdf to Save / Print composition pdf
More Than a Feeling - Boston
* Audio file gathered from willc's personal music library

More Than a Feeling - Boston  (4/4)

Intro and Verses

   Dsus4     D       C      G
e|-------3---2-----|-----------------|
B|---3-----3---3---|-----3-----3---3-|
G|-----2---------0-|---0-----0-------|
D|-0---------------|-----------------|
A|-----------------|-3-----2---------|
E|-----------------|-------------3---|
  I looked out this morning and the sun was gone,
  Turned on some music to start my day,
  Then lost myself in a familiar song.
  I closed my eyes and I

e|-0-0-----0-------|---------3-------|
B|-3---3-----3---3-|-----3-----3---0-|
G|-0-----0-----0---|---0---0-----0---|
D|-0---------------|-----------------|
A|-3---------------|-2---------------|
E|-----------------|-----------------|
  slipped away...

    Am7    G6        Dsus4     D
e|-----------------|-------3---2-----|
B|-----1-------1---|---3-----3-------|
G|---------------0-|-----2-----------|
D|---2---2---2-----| 0---------------|
A|-0---------------|-----------------|
E|---------3-------|-----------------|

Pre Chorus Riff:
e|-----------------------------------|
b|-12b-12-12b-r-10--12b-r-10h12p10-8-|
G|-----------------------------------|
D|-----------------------------------|
A|-----------------------------------|
E|-----------------------------------|

Chorus:

     G           C       Em                D (2 times)
     G           C       Em                D
It's more than a feeling (more than a feeling)
     G           C       Em                D
When I hear that old song they used to play
     G           C       Em                D
And I begin dreaming (more than a feeling)
      G           C      Eb
Til I see Marianne walk a-way,

   Em7      Asus4  A   A2  A     G        G  D/F# Em  D
e|--0------|--0----0---0------|-----3--|--3---2---0---2--|
B|--3------|--3----2---0---2--|-----3--|--3---3---0---3--|
G|--0------|--2----2---2---2--|--0--0--|--0---2---0---2--|
D|--2------|--2----2---2---2--|--0--0--|--0---0---2---0--|
A|--2------|------------------|--2-----|--0-------2------|
E|--0------|------------------|--3-----|--3---2---0------|
  I see my Marianne walking away.

   Dsus4     D
e|-----------------|
B|-----3-----3---3-|
G|---0-----0-------|
D|-----------------|
A|-3-----2---------|
E|-------------3---|

Verse:

So many people have come and gone,
Their faces fade as the years go by;
Yet I still recall as I wonder on, as clear as the sun
In the summer sky.

Chorus:

It's more than a feeling (more than a feeling)
When I hear that old song they used to play
And I begin dreaming (more than a feeling)
Til I see Marianne walk a-way,

   Em7      Asus4  A   A2  A
e|--0------|--0----0---0------|
B|--3------|--3----2---0---2--|
G|--0------|--2----2---2---2--|
D|--2------|--2----2---2---2--|
A|--2------|------------------|
E|--0------|------------------|
  I see my Marianne walking away.

[Bm  A]  [G  D/F#]  Asus4  [A 

Main Solo:

   A      ]  D          G       D           A 
e|---------|------------------|-------------------|
B|-2-3-5-7-|-7-8-7h8p7----10b-|---8-7-5h7p5---5-7-|
G|---------|----------9-7-----|-7-----------7-----|
D|---------|------------------|-------------------|
A|---------|------------------|-------------------|
E|---------|------------------|-------------------|

   D           G   D       A       D           G
e|---------------|---------------|-------------------|
B|---8-7h8p7-----|---------------|---8-7h8p7-----10b-|
G|-7---------9-7-|-9br-7-6---7-7-|-7---------9-7-----|
D|---------------|---------7-----|-------------------|
A|---------------|---------------|-------------------|
E|---------------|---------------|-------------------|

   Bm      A        D        Bm
e|----------------|-----------------|
B|-10-8-7h8p7---7-|-7-8-7-5h7p5---5-|
G|------------9---|-------------7---|
D|----------------|-----------------|
A|----------------|-----------------|
E|----------------|-----------------|

   Em         A           G                [G D/F# Em D]
e|----------------------|-------------17b-|
B|----------------------|-14h15p14--------|
G|-7s11-9h11p9----------|----------16-----|
D|-------------12-11-12-|-----------------|
A|----------------------|-----------------|
E|----------------------|-----------------|

                     C      G
e|-----------------|-----------------|
B|-----------------|-----3-----3---3-|
G|-----------------|---0-----0-------|
D|-------------0---|-----------------|
A|--3---2----------|-3-----2---------|
E|----------3------|-------------3---|

When I'm tired I'm thinking cold,
I hide in my music, forget the day and
Dream of a girl I used to know
I closed my eyes and she slipped away.  She slipped away

Chorus
        
 
 
Info Show/Hide: Song Information
Stats Song Stats
Rate Show/Hide: Rate this Song
 

Song Info  More Than a Feeling - Boston
More Than a Feeling - Boston
"More Than a Feeling" is a song written by Tom Scholz and first released by the rock band Boston as the lead single from their self-titled debut album on Epic Records in September 1976, with "Smokin'" on the flipside. The single peaked at number five on the Billboard Hot 100. The track is now a staple of classic rock and in 1999 it was named the 39th best hard rock song of all time by VH1.

His biggest hit, "More Than a Feeling" took writer Tom Scholz five years to complete. It is one of six songs Scholz worked on in his basement in 1974 and 1975 before Boston got its record contract, five of which eventually appeared on the Boston album. The drum parts were originally developed by Jim Masdea, although Sib Hashian played the drums on the official release. The verses are in the key of D major while the chorus is in G major. The song is in compound AABA form.

Source: Wikipedia, the free encyclopedia

Rate this Song  More Than a Feeling - Boston




Song Stats  More Than a Feeling - Boston
Adder: Bill Charrette [ willc ]
Date: 6/5/2016
Tab By: willc
Rated: (2) Hot! Popular!
Views: 634
pdf Hits: 236
Genre: Rock
 
  Previous Song | Next Song