Good Afternoon: Guitar Player
Tennessee Whisky   Previous Song | Next Song

Audio, Chords & Tab View pdf to Save / Print composition pdf
Tennessee Whisky - Chris Stapleton
* Audio file gathered from willc's personal music library

Tennessee Whisky - Chris Stapleton  (6/8)

Introduction:

e|-------------|--------------|--------------|
B|-------------|--------------|--------------|
G|-------------|--------------|--------------|
D|-------------|--------------|--------------|
A|------0-2s4--|s4s2-0-2s4s2--|-2s4-2s4s4s2--|
E|--0-2--------|--------------|--------------|

                   D/F#  A              A
e|-------------|----2----0----|---------0----|
B|-------------|----3----2----|---------2----|
G|-------------|----2----2----|---------2----|
D|-------------|----4----2----|---------2----|
A|-2s4s2-0-0---|----0----0----|------0-------|
E|-------------|----X----X----|--0-2---------|

 A                               Bm
Used to spend my nights out in a barroom
 Bm                              [A   D/F#   A]
Liquor was the only love I’ve known

           A
e|---------0---|
B|---------2---|
G|---------2---|
D|---------2---|
A|------0------|
E|--0-2--------|

 A                                         Bm
But you rescued me from reachin’ for the bottom
 Bm                               [A   D/F#   A]
And brought me back from being too far gone

           A
e|---------0---|
B|---------2---|
G|---------2---|
D|---------2---|
A|------0------|
E|--0-2--------|
 You're as

Chorus:
          [A  A  D/F#  A  ]          Bm
You’re as smooth       as Tennessee  whiskey
           Bm                    [A  A  D/F#  A  ]
You’re as  sweet  as strawberry wine
           A                  Bm
You’re as warm as a glass of brandy
                    Bm                         [A  A  D/F#  A  ]
And honey, I stay stoned on your love all the time

           A
e|-------------|
B|-------------|
G|-------------|
D|-------------|
A|------0-3h4--|
E|--0-2--------|

 A                                         Bm
I’ve looked for love in all the same old places
 Bm                                       [A   D/F#   A]
Found the bottom of a bottle was always dry

           A
e|---------0---|
B|---------2---|
G|---------2---|
D|---------2---|
A|------0------|
E|--0-2--------|

 A                                         Bm
But when you poured out your heart I didn’t waste it
 Bm                                            [A   D/F#   A]
Cause there’s nothing like your love to get me high, yeah

Chorus:
          [A  A  D/F#  A  ]          Bm
You’re as smooth       as Tennessee  whiskey
           Bm                    [A  A  D/F#  A  ]
You’re as  sweet  as strawberry wine
           A                  Bm
You’re as warm as a glass of brandy
                    Bm                         [A  A  D/F#  A  ]
And honey, I stay stoned on your love all the time


Solo: (Verse chords: A, Bm, Bm, [A   D/F#   A]) 2 times

            A              Bm                Bm               A
e|-------------|-------9---9s7---|-------9---9s7---|--7--7--|-5-----|
B|------10-12b-|-----------------|-----------------|--------|-------|
G|-9-11--------|--7s9------9s7---|--7s9------9s7---|--7--7--|-6-----|
D|-------------|-----------------|-----------------|--------|-------|
A|-------------|-----------------|-----------------|--------|-------|
E|-------------|-----------------|-----------------|--------|-------|

   A                                           Bm
e|-----------------------------|-------------|---------------|
B|------------------------10vv-|-12br(12)-10-|-12b-12b-10-10-|
G|----------------9-11-11------|-------------|---------------|
D|-----7---7-9s11--------------|-------------|---------------|
A|-7-9---9---------------------|-------------|---------------|
E|-----------------------------|-------------|---------------|

   Bm                                       A
e|--------------------------|----------|-----------------|
B|-10---10------------------|----------|-----------------|
G|-9h11----11---------------|----------|-----------------|
D|------------9p7---------7-|-9h10p9s7-|-----7--7--------|
A|----------------9---7h9---|----------|-7-9--9----7h9p7-|
E|--------------------------|----------|-----------------|

                     A
e|-----------------------------|
B|-------------------10----10--|
G|--------------9-11----11-----|
D|---7-9-7-9s11----------------|
A|-9---------------------------|
E|-----------------------------|
                   You’re as smooth 

Chorus:
          [A  A  D/F#  A  ]          Bm
You’re as smooth       as Tennessee  whiskey
           Bm                    [A  A  D/F#  A  ]
You’re as  sweet  as strawberry wine
           A                  Bm
You’re as warm as a glass of brandy
                    Bm                         [A  A  D/F#  A  ]
And honey, I stay stoned on your love all the time


Outro:
          [A  A  D/F#  A  ]          Bm
You’re as smooth       as Tennessee  whiskey
           Bm                    [A  A  D/F#  A  ]
Tennessee whiskey   Tennessee whiskey
          [A  A  D/F#  A  ]          Bm
You’re as smooth       as Tennessee  whiskey
           Bm                    [A  A  D/F#  A  ]
Tennessee whiskey   Tennessee whiskey


e|---------0---|
B|------2--2---|
G|---2---------|
D|-------------|
A|-------------|
E|-------------|



Chris Stapleton and Justin Timberlake - Tennessee Whiskey - CMA's 2015:

https://www.youtube.com/watch?v=ADuUQT_fPCw
        
 
 
Info Show/Hide: Song Information
Stats Song Stats
Rate Show/Hide: Rate this Song
 

Song Info  Tennessee Whisky - Chris Stapleton
Tennessee Whisky - Chris Stapleton
"Tennessee Whiskey" is the title of a country song written by Dean Dillon and Linda Hargrove. It was originally recorded by American country music artist David Allan Coe, whose version peaked at number 77 on the Billboard Hot Country Singles chart in 1981. The song was covered by American country music artist George Jones, whose version was released in August 1983 as the third single from his album Shine On. Jones' version reached number 2 on the Billboard Hot Country Singles chart in November 1983 and #1 on the RPM Country Tracks chart in Canada. Coe joined Jones onstage to sing a chorus on the song at the inaugural Farm Aid in 1985. It remained a mainstay in Jones' live set, with the singer often substituting the name of whatever city or town he was in for "Tennessee" in the second chorus. Chris Stapleton's cover of the song for his debut album Traveller charted within the Billboard Hot 100 top 40.

Check out Etta James “I’d Rather Go Blind”:
https://www.youtube.com/watch?v=u9sq3ME0JHQ

Source: Wikipedia, the free encyclopedia

Rate this Song  Tennessee Whisky - Chris Stapleton




Song Stats  Tennessee Whisky - Chris Stapleton
Adder: Bill Charrette [ willc ]
Date: 11/11/2015
Tab By: willc
Rated: (12) Hot! Popular!
Views: 979
pdf Hits: 450
Genre: Country
 
  Previous Song | Next Song