Good Afternoon: Guitar Player
Scarborough Fair   Previous Song | Next Song

Audio, Chords & Tab View pdf to Save / Print composition pdf
Scarborough Fair - Simon and Garfunkel
* Audio file gathered from willc's personal music library

Scarborough Fair - Simon and Garfunkel  (3/4 - Capo 7th Fret)

Arranged by M. Raven 

Introduction:
------------
   Am            Am(aug 5th)   Am6           Am(aug 5th)

   |   |   |     |   |   |     |   |   |     |   |   |
e|-0-------0---|-1-------1---|-2-------2---|-1-------1---|
B|-1-------1---|-1-------1---|-1-------1---|-1-------2---|
G|-2-------2---|-2-------2---|-2-------2---|-2-------2---|
D|-----2-------|-----2-------|-----2-------|-----2-------|
A|-0-----------|-0-----------|-0-----------|-0-----------|
E|-------------|-------------|-------------|-------------|

Melody:
------
   Am            Am            G             Am            Am
                                    _             _   _ 
   |   |   |     |   |   |     |   | | |     |   | | | |   |   |   |
e|-------------|-0-------0---|-------------|-------------|-------------|
B|-------------|-------------|-0-----1-0---|---------0h1-|-------------|
G|-2-------2---|-------------|-------------|-2-----2-----|-2-------2---|
D|-----2-------|-----2-------|-----0-------|-----2-------|-----2-------|
A|-0-----------|-0-----------|-------------|-0-----------|-0-----------|
E|-------------|-------------|-3-----------|-------------|-------------|
   Are you      going to   Scarborough       Fair

   C             Am      C         D         Am
                                                  _   _ 
   |   |   |     |   |   |     |   |   |     |   | | | |   |   |   |
e|-0-------3---|-5-------3---|-0---2-------|-0-----------|---------0---|
B|-1-----------|-5-------1---|-----3---3---|-1-------0h1-|-------------|
G|-0-----------|-5-------0---|-----2-------|-2-----2-----|-2-----------|
D|-----2-------|-------------|-----0-------|-----2-------|-----2-------|
A|-3-----------|-----0---3---|-------------|-0-----------|-0-----------|
E|-------------|-------------|-------------|-------------|-------------|
   Parley,     sage, rosemary         and    thyme.

   Am            C                           G
                                              _
   |   |   |     |   |   |     |   |   |     | | |   |     |   |   |
e|-5-------5---|-3-------0---|-0-----------|-------------|-------------|
B|-5-----------|-1-----------|-----3---1---|-0-------1---|-0-----------|
G|-5-----------|-0-----------|-------------|---0---------|---------0---|
D|-------------|-------------|-------------|-----0---2---|-0-----------|
A|-----0-------|-----3-------|-3---2---0---|-------------|-------------|
E|-------------|-------------|-------------|-3-----------|-----3-------|
   Remember     me to the     one who lives there.

   Am            G                           Am
                                                  _   _
   |   |   |     |   |   |     |   |   |     |   | | | |   |   |   |
e|---------0---|-------------|-------------|-------------|-------------|
B|-------------|-3-------1---|-0-----------|---------0h1-|-------------|
G|-2-----------|-------------|-----2---0---|-2-----2-----|-2-------2---|
D|-----2-------|-----0-------|-------------|-----2-------|-----2-------|
A|-0-----------|-------------|-------------|-0-----------|-0-----------|
E|-------------|-3-----------|-3-----------|-------------|-------------|
   She once     was a         true love of   mine.

Ending Tag:
----------
   Am            G                           Am
                                              _   _   _ 
   |   |   |     |   |   |     |   |   |     | | | | | |   |   |   |
e|-----0-------|-----3-------|-------------|-----------0-|-5-----------|
B|-----1-------|-----0-------|-------------|-------0-1---|-5-----------|
G|-----2-------|-----0-------|-------------|-----2-------|-5-----------|
D|---------2---|-0-----------|-------------|---2---------|-------------|
A|-0-----------|---------3---|-2---0-------|-0-----------|-0-----------|
E|-------------|-------------|---------3---|-------------|-------------|


Am       Am          G        Am     Am
Are you going to Scarborough Fair:
C       [Am       C]    D     Am     Am
Parley, sage, rosemary and thyme.
Am       C      C             G      G
Remember me to one who lives there.
Am       G      G             Am     Am
She once was a true love of mine.

Tell her to make me a cambric shirt
Parsley, sage, rosemary and thyme;
Without no seems nor nee-dle work,
Then she'll be a true love of mine.

Tell her to find me an acre of land
Parsley, sage, rosemary and thyme;
Between the salt water and the sea strand,
Then she'll be a true love of mine.

Tell her to reap it with a sickle of leather
Parsley, sage, rosemary and thyme;
And gather it all in a bunch of heather,
Then she'll be a true love of mine. 

Are you going to Scarborough Fair
Parley, sage, rosemary and thyme.
Remember me to one who lives there.
She once was a true love of mine.
        
  View pdf to Save / Print composition pdf
 
 
Info Show/Hide: Song Information
Stats Song Stats
Rate Show/Hide: Rate this Song
 

Song Info  Scarborough Fair - Simon and Garfunkel
Scarborough Fair - Simon and Garfunkel
"Scarborough Fair" is a traditional English ballad about the Yorkshire town of Scarborough.

The song relates the tale of a young man who instructs the listener to tell his former love to perform for him a series of impossible tasks, such as making him a shirt without a seam and then washing it in a dry well, adding that if she completes these tasks he will take her back. Often the song is sung as a duet, with the woman then giving her lover a series of equally impossible tasks, promising to give him his seamless shirt once he has finished.

As the versions of the ballad known under the title "Scarborough Fair" are usually limited to the exchange of these impossible tasks, many suggestions concerning the plot have been proposed, including the hypothesis that it is about the Great Plague of the late Middle Ages. The lyrics of "Scarborough Fair" appear to have something in common with an obscure Scottish ballad, The Elfin Knight (Child Ballad #2), which has been traced at least as far back as 1670 and may well be earlier. In this ballad, an elf threatens to abduct a young woman to be his lover unless she can perform an impossible task ("For thou must shape a sark to me / Without any cut or heme, quoth he"); she responds with a list of tasks that he must first perform ("I have an aiker of good ley-land / Which lyeth low by yon sea-strand").

The melody is very typical of the middle English period.

As the song spread, it was adapted, modified, and rewritten to the point that dozens of versions existed by the end of the 18th century, although only a few are typically sung nowadays. The references to the traditional English fair, "Scarborough Fair" and the refrain "parsley, sage, rosemary, and thyme" date to 19th century versions, and the refrain may have been borrowed from the ballad Riddles Wisely Expounded, (Child Ballad #1), which has a similar plot. A number of older versions refer to locations other than Scarborough Fair, including Wittingham Fair, Cape Ann, "twixt Berwik and Lyne", etc. Many versions do not mention a place-name, and are often generically titled ("The Lovers' Tasks", "My Father Gave Me an Acre of Land", etc.).

Source: Wikipedia, the free encyclopedia

Rate this Song  Scarborough Fair - Simon and Garfunkel




Song Stats  Scarborough Fair - Simon and Garfunkel
Adder: Bill Charrette [ willc ]
Date: 7/5/2015
Tab By: willc
Rated: (3) Hot! Popular!
Views: 641
pdf Hits: 331
Genre: Traditional
 
  Previous Song | Next Song