Good Morning: Guitar Player
Major 3rd Lead Guitar (83)   Previous Lick | Next Lick

Audio, Chords & Tab View pdf to Save / Print composition pdf
Major 3rd Lead Guitar (83) - Neal Walter
* Audio file extracted from contributor’s website

Major 3rd Lead Guitar (83) - Neal Walter  (4/4 - Key A)

Key A:
-----

   Introduction
        ___     ___     ___     ___     ___     ___ 
   |   |   |   |   |   |   |   |   |   |   |   |   |   |
e|---------------------------|---------------------------|
B|---------------------------|---------------------------|
G|-2---2-------2-------2-----|-----5s--6-------5s--6-----|
D|-2---2-------2-------2-----|-----4s--5-------4s--5-----|
A|-0---0-------0-------0---0-|-0-----------0-----------0-|
E|---------3b------3b--------|---------------------------|


Lick 1
------
        ---- Trill ----    -- Walk Up to A--    ---- Trill ----
        ___ ___ ___ ___                         ___ ___ ___ ___ 
   |   |   |   |   |   |   |   |   |   |   |   |   |   |   |   |
e|-----------------------|---------------------------------------|
B|-7---5-----------------|-----------------7---5-----------------|
G|-7---5h--6p--5h--6p--5h|-----------------7---5h--6p--5h--6p--5h|
D|-----------------------|---------2-----------------------------|
A|-----------------------|---------0---0-------------------------|
E|-----------------------|-3---4---------------------------------|


Lick 2
------
        ___ 
   |   |   |   |   |
e|-------------------|
B|-7---5-------------|
G|-7---5h--6---------|
D|-------------7--(7)|
A|-------------------|
E|-------------------|


Lick 3
------
    ___     ___ 
   |   |   |   |   |   |
e|-----------------------|
B|-----------------------|
G|-5s--6---5s--6--(6)-(6)|
D|-4s--5---4s--5--(5)-(5)|
A|-----------------------|
E|-----------------------|
        
 
 
Info Show/Hide: Song Information
Stats Song Stats
Rate Show/Hide: Rate this Song
 

Song Info  Major 3rd Lead Guitar (83) - Neal Walter
Major 3rd Lead Guitar (83) - Neal Walter
Spice up your lead playing with the oldest trick in the book, using the major 3rd. This is a classic blues rock guitar sound and this week Neal shares three of his favorite licks using these tasty notes. You'll immediately recognize the sound. Take one for a test drive!

Source: GuitarTricks.com

Rate this Song  Major 3rd Lead Guitar (83) - Neal Walter




Song Stats  Major 3rd Lead Guitar (83) - Neal Walter
Adder: Bill Charrette [ willc ]
Date: 5/11/2015
Tab By: willc
Rated: (3) Hot! Popular!
Views: 479
pdf Hits: 276
Genre: Licks
 
  Previous Lick | Next Lick