My Guitar Songbook
Good Evening: Guitar Player
Licks played in the key of G   Previous Lick | Next Lick

Audio, Chords & Tab pdf View pdf to Save / Print composition
Licks played in the key of G - Robert Renman
* Audio file extracted from contributor’s website

Licks played in the key of G - Robert Renman  (4/4 - Key G)

Key G:
-----

Lick 1
------

MAJOR (Box 4)
    ___ __ ___   _   _ 
   |   |  |   | | | | |  |
e|----10--------------------|
B|10b----10b-10-8---8---10b-|
G|----------------9---9-----|
D|--------------------------|
A|--------------------------|
E|--------------------------|


Lick 2
------

MINOR (Box 1)
    __ __ __ __     __ __ __ __
   |  |  |  |  |   |  |  |  |  |   |   |
e|---------15-18b-15-------15-------------|
B|15-15-17-----------15-18----------------|
G|----------------------------17b-15-(15)-|
D|----------------------------------------|
A|----------------------------------------|
E|----------------------------------------|


*:·..·:*¨¨*:·..·:*¨¨*:·..·:*¨¨*:·..·:*¨¨*:·..·:*¨¨*:·..·:*


Key A (Transposed - Original Key G):
-----

MAJOR (Box 4)                      MINOR (Box 1)
                                        M
    ___ __ ___    __    __           _ _ _ _    _ _ _ _ 
   |   |  |   |  |  |  |  |  |      | | | | |  | | | | |  |  |
e|----12------------------------| |-------5-8b-5-----5----------|
B|12b----12b-12-10----10----12b-| |-5-5-7--------5-8------------|
G|-----------------11----11-----| |--------------------7b-5-(5)-|
D|------------------------------| |-----------------------------|
A|------------------------------| |-----------------------------|
E|------------------------------| |-----------------------------|
        
 
 
Info Show/Hide: Song Information
Stats Song Stats
Rate Show/Hide: Rate this Song
Top  

Song Info  Licks played in the key of G - Robert Renman
Licks played in the key of G - Robert Renman
The first lick is a major sounding lick and it features a whole step bend that actually makes it a whole lot harder than it seems. The second lick is a minor sounding lick it has some faster notes and even some string skipping

Source: MasterGuitarAcadamy.com

Rate this Song  Licks played in the key of G - Robert Renman




Song Stats  Licks played in the key of G - Robert Renman
Adder: Bill Charrette [ willc ]
Date: 5/7/2015
Tab By: willc
Rated: (3) Hot! Popular!
Views: 371
pdf Hits: 133
Genre: Licks
 
  Previous Lick | Next Lick