Good Evening: Guitar Player
Fever   Previous Song | Next Song

Audio, Chords & Tab View pdf to Save / Print composition pdf
Fever - The McCoys
* Audio file gathered from willc's personal music library

Fever - The McCoys  (4/4)

Drums:

e|-------------------|-----------------------|
B|-------------------|-----------------------|
G|-------------------|-----------------------|
D|-------------------|-----------------------|
A|-------------------|-----------------------|
E|-------------------|-------------------10\-|

Main Riff:
      _         _         _         _   _ _ 
   | | | |   | | | |   | | | |   | | | | | |
e|---------|---------|---------|-------------|
B|---------|---------|---------|-------------|
G|---------|---------|---------|-------------|
D|---------|---------|---------|-------------|
A|-----1-1-|-----1---|-5-5-----|-----5-------|
E|-3-3-----|-3-3---3-|-----2-2-|-3-3---0-1-2-|


Gm                    Gm
Never know how much I love you.
Gm                    D
Never know how much I care.
Gm                      C
When you put your arms around me.
        D                       Gm
I get a fever that's so hard to bear (You give me fever).


Chorus:
Gm                    Gm
You give me fever, when you kiss me.
Gm                     D
Fever when you hold me tight (you give me fever).
Gm        C
Fever ... in the mornin.
D                     Gm
Fever all through the night.


Gm                Gm
Sun lights up the day time.
Gm                 D
Moon lights up the night.
Gm                  C
I light up when you call my name.
        D                         Gm
Cause I know you're gonna treat me right (You give me fever).


Chorus:
Gm                  Gm
You give me fever, when you kiss me.
Gm                     D
Fever when you hold me tight (You give me fever).
Gm        C
Fever ... in the mornin.
D                     Gm
Fever all through the night.


Lead Break...Main Riff


Gm          Gm 
Everybody's got the fever.
Gm                D
That is something you all know.
Gm          C
Fever isn't such a new thing..
D                       Gm
Fever started long time ago.


Gm                 Gm
You give me fever..baby, turn on your 
Gm                 D
love light. yeah..yeah.
                Gm        D
Let it shine on me..yeah, yeah.
                         Gm                D
Well, baby, turn on your love light..yeah, yeah.
                    Gm        D
And let it shine on me..yeah, yeah.
                        Gm            D
Well, just a little bit higher..yeah, yeah.
                      Gm                    D
And just a little bit brighter, baby. Yeah, yeah.
           D                   Gm          
Whooooaaa! You give me fever..yeah, yeah, yeah.
D                  Gm 
You give me fever..yeah, yeah, yeah.
D                  Gm
You give me fever..yeah, yeah, yeah.
D                  Gm
You give me fever.


Bass Riff (Verses)
------------------
        _         _         _         _
   | | | |   | | | |   | | | |   | | | |
e|---------|---------|---------|---------|
B|---------|---------|---------|---------|
G|---------|---------|---------|---------|
D|---------|---------|---------|---------|
A|-----1-1-|-----1-1-|-----1-1-|-----5-5-|
E|-3-3-----|-3-3-----|-3-3-----|-3-3-----|
Never knew...I love   Never knew..I care

      _         _                   _ _ 
   | | | |   | | | |   | | | |   | | | | |
e|---------|---------|---------|-----------|
B|---------|---------|---------|-----------|
G|---------|---------|---------|-----------|
D|---------|---------|---------|-------3---|
A|-----1-1-|-3-3-1-3-|-5-------|---5-5---5-|
E|-3-3-----|---------|---------|-----------|
                      fever that's... you give...

Bass Riff (Chorus) 
------------------
      _         _         _         _ 
   | | | |   | | | |   | | | |   | | | |
e|---------|---------|---------|---------|
B|---------|---------|---------|---------|
G|---------|---------|---------|---------|
D|---------|---------|---------|---------|
A|-----3-3-|-5-5-3-1-|-----3-3-|-5-5-3-1-|
E|-3-3-----|---------|-3-3-----|---------|
(you give...) when you kiss me
      _         _         _         _ 
   | | | |   | | | |   | | | |   | | | |
e|---------|---------|---------|---------|
B|---------|---------|---------|---------|
G|---------|---------|---------|---------|
D|---------|---------|---------|---------|
A|-----3-3-|-5-5-3-1-|-----3-3-|---------|
E|-3-3-----|---------|-3-3-----|-3-1---2-|
            in the morning  fever all...
        
  View pdf to Save / Print composition pdf
 
 
Info Show/Hide: Song Information
Stats Song Stats
Rate Show/Hide: Rate this Song
 

Song Info  Fever - The McCoys
Fever - The McCoys
Info not provided.


Rate this Song  Fever - The McCoys




Song Stats  Fever - The McCoys
Adder: Bill Charrette [ willc ]
Date: 4/16/2015
Tab By: willc
Rated: (5) Hot! Popular!
Views: 731
pdf Hits: 217
Genre: Rock
 
  Previous Song | Next Song