Good Evening: Guitar Player
Jimi Hendrix Style Lick   Previous Lick | Next Lick

Audio, Chords & Tab View pdf to Save / Print composition pdf
Jimi Hendrix Style Lick - Jody Worrell
* Audio file extracted from contributor’s website

Jimi Hendrix Style Lick - Jody Worrell  (4/4 - Key E)

Key E:
-----

        ___             ___ ___ ___         ___      ___     ___     
   |   |   |   |   |   |   |   |   |   |   |   |    |   |   |   |   |
e|-----------|-----------------------|-----3--(3)|--3---3---3---------|
B|-----------|-----3-----------------|---------3-|--3---3---3---------|
G|-----0---2b|(2)---pbr2r--0---------|-0---------|4h5-4h5-4h5p--4-----|
D|-2---------|-----------------2---0-|-----------|------------------5-|
A|-----------|-----------------------|-----------|--------------------|
E|-----------|-----------------------|-----------|--------------------|



*:·..·:*¨¨*:·..·:*¨¨*:·..·:*¨¨*:·..·:*¨¨*:·..·:*¨¨*:·..·:*



Key A (Transposed - Original Key E):
-----

        ___             ___ ___ ___         ___       ____      ___    
   |   |   |   |   |   |   |   |   |   |   |   |     |    |    |   |   |
e|-----------|-----------------------|-----8--(8)|---8----8----8---------|
B|-----------|-----8-----------------|---------8-|---8----8----8---------|
G|-----5---7b|(7)---pbr7r--5---------|-5---------|9h10-9h10-9h10p--9-----|
D|-7---------|-----------------7---5-|-----------|--------------------10-|
A|-----------|-----------------------|-----------|-----------------------|
E|-----------|-----------------------|-----------|-----------------------|
        
 
 
Info Show/Hide: Song Information
Stats Song Stats
Rate Show/Hide: Rate this Song
 

Song Info  Jimi Hendrix Style Lick - Jody Worrell
Jimi Hendrix Style Lick - Jody Worrell
Jimi Hendrix Style Lick is a free video lesson by Jody Worrell where you will learn a Hendrix inspired guitar lick to play a ballad in Em. Jimi had a knack for bringing a mixture of tone and energy to his solos even when playing on a slower song.

Jody will take you note by note through this lick making sure you learn how to play it properly. By letting notes ring and adding some tricky bends, we can help recreate some of that legendary tone. After learning the lick, you'll have the opportunity to practice it along with the backing track to work on your timing. To learn more soloing ideas like this, check out our premium Jimi Hendrix Style lesson package.

Source: FreeGuitarVideos.com

Rate this Song  Jimi Hendrix Style Lick - Jody Worrell




Song Stats  Jimi Hendrix Style Lick - Jody Worrell
Adder: Bill Charrette [ willc ]
Date: 11/29/2014
Tab By: willc
Rated: (9) Hot! Popular!
Views: 458
pdf Hits: 245
Genre: Licks
 
  Previous Lick | Next Lick