My Guitar Songbook
Good Evening: Guitar Player
SRV Style Lick 1   Previous Lick | Next Lick

Audio, Chords & Tab pdf View pdf to Save / Print composition
SRV Style Lick 1 - Robert Renman
* Audio file extracted from contributor’s website

SRV Style Lick 1 - Robert Renman  (4/4 - Key E)

Key E:
-----

    ___     ___     ___     ___ ___     ___     ___     ___     ___ 
   |   |   |   |   |   |   |   |   |   |   |   |   |   |   |   |   |
e|--------12----------14--12h-13p-12-|--------15--12------------------|
B|----12------15--12-----------------|15--12----------15--12----------|
G|14b--------------------------------|----------------------pb14r(14)p|
D|-----------------------------------|--------------------------------|
A|-----------------------------------|--------------------------------|
E|-----------------------------------|--------------------------------|
    ___ 
   |   |   |
e|------------|
B|------------|
G|12------12vv|
D|----14------|
A|------------|
E|------------|



*:·..·:*¨¨*:·..·:*¨¨*:·..·:*¨¨*:·..·:*¨¨*:·..·:*¨¨*:·..·:*



Key A (Transposed - Original Key E):
-----


    ___     ___     ___     ___ ___     ___     ___     ___     ___ 
   |   |   |   |   |   |   |   |   |   |   |   |   |   |   |   |   |
e|---------5-----------7---5h--6p--5-|---------8---5------------------|
B|-----5-------8---5-----------------|-8---5-----------8---5----------|
G|-7b--------------------------------|-----------------------pb7r-(7)p|
D|-----------------------------------|--------------------------------|
A|-----------------------------------|--------------------------------|
E|-----------------------------------|--------------------------------|
    ___ 
   |   |   |
e|------------|
B|------------|
G|-5-------5vv|
D|-----7------|
A|------------|
E|------------|
        
 
 
Info Show/Hide: Song Information
Stats Song Stats
Rate Show/Hide: Rate this Song
Top  

Song Info  SRV Style Lick 1 - Robert Renman
SRV Style Lick 1 - Robert Renman
Guitar Lesson Overview

Here is a nice Stevie Ray Vaughan style lick (SRV Texas Flood Lick Lesson). In this example I am playing in the key of E. This SRV lick uses mostly the regular blues scale, although there are 2 notes (Gb and F) which are not part of the blues scale.

It sounds good played slow or fast. Have a listen to Texas Flood, and you'll hear SRV burn off quite a few licks very similar to this one.

YouTube Lesson: http://www.youtube.com/watch?v=38CurRi0A8M#t=152

Source: DolphinStreet.com

Rate this Song  SRV Style Lick 1 - Robert Renman




Song Stats  SRV Style Lick 1 - Robert Renman
Adder: Bill Charrette [ willc ]
Date: 9/15/2014
Tab By: willc
Rated: (2) Hot! Popular!
Views: 286
pdf Hits: 147
Genre: Licks
 
  Previous Lick | Next Lick