My Guitar Songbook
Good Evening: Guitar Player
Funky 'A Minor' Blues Scale...   Previous Lick | Next Lick

Audio, Chords & Tab pdf View pdf to Save / Print composition
Funky 'A Minor' Blues Scale Lick - Robert Renman
* Audio file extracted from contributor’s website

Funky 'A Minor' Blues Scale Lick - Robert Renman  (4/4 - Key A)

Key A:
-----

    ___     ___ ___ ___         
   |   |   |   |   |   |   |   |
e|-8b--5-------------------------|
B|---------5---------------------|
G|-------------8s--7p--5---------|
D|-------------------------7\----|
A|-------------------------------|
E|-------------------------------|

    ___     ___ ___ ___     ___ ___     ___ ___
   |   |   |   |   |   |   |   |   |   |   |   |
e|-8b--5-----------------------------------------|
B|---------5-------------------------------------|
G|-------------8s--7p--5-------5-----------------|
D|-------------------------7-------7---5-------5-|
A|-----------------------------------------7-----|
E|-----------------------------------------------|


*:·..·:*¨¨*:·..·:*¨¨*:·..·:*¨¨*:·..·:*¨¨*:·..·:*¨¨*:·..·:*


Key E (Transposed - Original Key A):
-----

    ___     ___ ___ ___         
   |   |   |   |   |   |   |   |
e|-3b--0-------------------------|
B|---------0---------------------|
G|-------------3s--2p--0---------|
D|-------------------------2\----|
A|-------------------------------|
E|-------------------------------|

    ___     ___ ___ ___     ___ ___     ___ ___
   |   |   |   |   |   |   |   |   |   |   |   |
e|-3b--0-----------------------------------------|
B|---------0-------------------------------------|
G|-------------3s--2p--0-------0-----------------|
D|-------------------------2-------2---0-------0-|
A|-----------------------------------------2-----|
E|-----------------------------------------------|
        
 
 
Info Show/Hide: Song Information
Stats Song Stats
Rate Show/Hide: Rate this Song
Top  

Song Info  Funky 'A Minor' Blues Scale... - Robert Renman
Funky 'A Minor' Blues Scale Lick - Robert Renman
Guitar Lesson Overview

This is the good old A Minor Blues Scale. See how a scale can sound really cool when played like this? Don't be afraid of scales - instead, learn how to really use them.

The lick uses a funky track that goes from A minor to D major. Simple and cool. Instruction by Robert Renman.


Lesson: http://www.dolphinstreet.com/guitar_video_lessons/lesson-215.php

Source: DolphinStreet.com

Rate this Song  Funky 'A Minor' Blues Scale... - Robert Renman




Song Stats  Funky 'A Minor' Blues Scale... - Robert Renman
Adder: Bill Charrette [ willc ]
Date: 8/8/2014
Tab By: willc
Rated: (3) Hot! Popular!
Views: 373
pdf Hits: 141
Genre: Licks
 
  Previous Lick | Next Lick