My Guitar Songbook
Good Evening: Guitar Player
The Last Time   Previous Song | Next Song

Audio, Chords & Tab pdf View pdf to Save / Print composition
The Last Time - The Rolling Stones
* Audio file gathered from willc's personal music library

The Last Time - The Rolling Stones  (4/4)

Introduction & Main Riff:
------------------------
    E                     D           A
             ___           ___         ___ 
    |   |   |   |   |     |   |   |   |   |   |
e|---------------------|-------------------------|
B|---------------------|-------------------------|
G|------7-----------9--|----------7-----------6--|
D|7s9-----------9------|--0h--9------------------|
A|---------------------|--------------0h--7------|
E|---------------------|-------------------------|

     E                     [D             A]     E    [D     A]
Well I told you once and I told you twice
     E                     [D             A]     E    [D     A]
You never listen to my advice
     E                     [D             A]     E    [D     A]
You don't try very hard to please me
     E                     [D             A]     E    [D     A]
With what you know it should be easy


Chorus:
------
A                      A 
Well this could be the last time
A                 A
This could be the last time
D                 D
Maybe the last time
D         A       A         E      [D     A]     E    [D     A]
I don't know, oh no,      oh no


Well, I'm sorry girl but I can't stay
Feelin' like I do today
It's too much pain and too much sorrow
How good, I'll feel the same tomorrow

Chorus

Solo:  Lick 1, Lick 2, Lick 1, Lick 3

Chorus

Well I told you once and I told you twice
But someone will have to pay the price
And here's a chance to change your mind
Cuz I'll be gone a long, long time

Chorus

This time baby, I'll see you no more
Last time baby, I'll see you no more
This time baby, I'll see you no more
Last time baby, I'll see you no more
Alright, c'mon, c'mon


Solo Licks:
----------

Lick 1:
------
    E                    D       A
             ___           
    |   |   |   |   |    |   |   |   |
e|-----12------12--12--|10-------5-----|
B|------9-------9---9--|10-------5-----|
G|------9-------9---9--|11-------6-----|
D|--9---9-------9---9--|12-------7-----|
A|---------------------|---------------|
E|---------------------|---------------|

    E              D               A
                    ___     ___     ___
   |   |   |   |   |   |   |   |   |   |   |
e|-0-------------|---------------------------|
B|-0-------------|-----3---------------------|
G|-1-------------|s4-----------4s--2p--0-----|
D|-2-------------|-------------------------2-|
A|-2-------------|---------------------------|
E|---------------|---------------------------|

Lick 2:
------
    E                    D       A
             ___           
    |   |   |   |   |    |   |   |   |
e|-----12------12--12--|10-------5-----|
B|------9-------9---9--|10-------5-----|
G|------9-------9---9--|11-------6-----|
D|--9---9-------9---9--|12-------7-----|
A|---------------------|---------------|
E|---------------------|---------------|

    E              D               A
                    ___     ___     ___     ___ 
   |   |   |   |   |   |   |   |   |   |   |   |
e|-0-------------|-------------------------------|
B|-0-------------|-----8--10--10b-10b-10---8-----|
G|-1-------------|s9---------------------------9-|
D|-2-------------|-------------------------------|
A|-2-------------|-------------------------------|
E|---------------|-------------------------------|

Lick 3:
------
    E                    D       A
             ___           
    |   |   |   |   |    |   |   |   |
e|-----12------12--12--|10-------5-----|
B|------9-------9---9--|10-------5-----|
G|------9-------9---9--|11-------6-----|
D|--9---9-------9---9--|12-------7-----|
A|---------------------|---------------|
E|---------------------|---------------|

   E               D               A
                    ___     ___     ___     
   |   |   |   |   |   |   |   |   |   |   |
e|-0-------------|15b-----12-----------------|
B|-0-------------|---------------------------|
G|-1-------------|------------14b-----14--12-|
D|-2-------------|---------------------------|
A|-2-------------|---------------------------|
E|---------------|---------------------------|
        
 
 
Info Show/Hide: Song Information
Stats Song Stats
Rate Show/Hide: Rate this Song
Top  

Song Info  The Last Time - The Rolling Stones
The Last Time - The Rolling Stones
The Last Time is a song by the English rock band The Rolling Stones. This was The Rolling Stones' first British single written by Mick Jagger and Keith Richards, although Keith Richards admitted in the 2003 book According to the Rolling Stones that '... we came up with The Last Time, which was basically re-adapting a traditional Gospel song that had been sung by the Staple Singers, but luckily the song itself goes back into the mists of time.'. It was the band's third UK single to reach #1, spending four straight weeks at the top on most of the numerous UK music charts (there was no one UK chart at the time considered to be an absolute and definitive authority) in March and early April 1965. It reached No.2 in the Irish charts in March 1965. "The Last Time" was recorded at RCA Studios in Hollywood, California in January 1965. The Last Time was mixed in true stereo, but only bootleggers have a poor quality version, and the stereo version is noticeably shorter than the mono counterpart.

Source: Wikipedia, the free encyclopedia

Rate this Song  The Last Time - The Rolling Stones




Song Stats  The Last Time - The Rolling Stones
Adder: Bill Charrette [ willc ]
Date: 2/24/2014
Tab By: willc
Rated: (2) Hot! Popular!
Views: 406
pdf Hits: 147
Genre: Rock
 
  Previous Song | Next Song