Good Morning: Guitar Player
Yellow Ledbetter (Pearl Jam)...   Previous Lick | Next Lick

Audio, Chords & Tab View pdf to Save / Print composition pdf
Yellow Ledbetter (Pearl Jam) Lick - Brett Papa
* Audio file extracted from contributor’s website

Yellow Ledbetter (Pearl Jam) Lick - Brett Papa  (4/4 - Key E)

Key E:
-----

Introduction
------------

   E
        ___ ___         ___ ___ ___ 
   |   |   |   |   |   |   |   |   |
e|-----------------------------------|
B|---------------------9-------------|
G|-------------9---X---9h-11p--9-----|
D|-----9-------9------------------11-|
A|-----9h-11-------------------------|
E|-0---------------------------------|

   B
    ___ ___ ___     ___     ___     ___
   |   |   |   |   |   |   |   |   |   |
e|---------9p--7-------------------7---9-|
B|-----------------7---------------7---7-|
G|---------------------8--(8)------8---8-|
D|-----9---------------9--(9)------9-----|
A|---------------------------------------|
E|-7---------------------------X---------|

   A
    ___ ___ ___     ___ ___     ___     ___ ___ ___ ___ ___
   |   |   |   |   |   |   |   |   |   |   |   |   |   |   |
e|-7p--5-----------5-------------------5h--7p--5-------------|
B|-5---------------5-------5--(5)------------------7p--5-----|
G|-6---------------6h--7p--6--(6)--------------------------6-|
D|-7---------------7---------------7-------------------------|
A|---------0--(0)--------------------------------------------|
E|-----------------------------------------------------------|

   E
            ___     ___ ___ 
   |   |   |   |   |   |   |
e|--------12s-14--12---9-----|
B|--------12s-14--12---9-----|
G|------------------------11-|
D|---------------------------|
A|---------------------------|
E|-0--(0)--------------------|


Second time around
------------------

   E
        ___ ___         ___ ___  
   |   |   |   |   |   |   |   |
e|---------------------9---------|
B|---------------------9---9-----|
G|-------------9---X--11---9-----|
D|-----9-------9--------------11-|
A|-----9h-11---------------------|
E|-0-----------------------------|

   B
    ___ ___     ___     ___     ___ ___
   |   |   |   |   |   |   |   |   |   |
e|-------------9---9---7-------9p--7---9-|
B|-----------------7---7--(7)--7-------7-|
G|-----8--(8)------8---8--(8)--8-------8-|
D|-----9---9-----------9--(9)--9---------|
A|---------------------------------------|
E|-7-------------------------------------|

   A
    ___ ___     ___ ___     ___     ___ ___ 
   |   |   |   |   |   |   |   |   |   |   |
e|-7p--5---------------5--(5)--------------5-|
B|-5-------------------------------5h--7p--5-|
G|-6-----------6h--7-----------6-------------|
D|-7-----------7-----------------------------|
A|---------0---------------------------------|
E|-------------------------------------------|

   E
                ___ ___ 
   |   |   |   |   |   |
e|------------12s-19-----|
B|------------12s-19-----|
G|-----------------------|
D|--------------------14-|
A|--------------------14-|
E|-0--(0)-(0)---------16-|


Into the singing
----------------

   E
        ___ ___     ___     ___ ___ 
   |   |   |   |   |   |   |   |   |
e|-----------------------------------|
B|---------------------------------9-|
G|-------------9--(9)--9---9---9---9-|
D|-----9-------9--(9)--9---9---9-----|
A|-----9h-11--------------11---------|
E|-0---------------------------------|

   B
    ___     ___ ___     ___     ___ ___
   |   |   |   |   |   |   |   |   |   |
e|-------------7-------------------------|
B|-------------7---7-------7---9p--7---7-|
G|----(8)--8h--9---9p--8---8---8-------8-|
D|-----9---9-------9-------9-----------9-|
A|---------------------------------------|
E|-7-----------------------7-------------|

   A
        ___ ___     ___     ___ 
   |   |   |   |   |   |   |   |
e|-----------------------------7-|
B|-----5-------5---5---5--(5)--5-|
G|-----6h--7---7---7---6--(6)--6-|
D|-----7-------7---7---7--(7)--7-|
A|-0-------------------0--(0)----|
E|-------------------------------|

   E
        ___
   |   |   |   |   |
e|--------12-(12)----|
B|----12-------------|
G|-------------------|
D|-------------------|
A|-------------------|
E|-0-----------------|
        
 
 
Info Show/Hide: Song Information
Stats Song Stats
Rate Show/Hide: Rate this Song
 

Song Info  Yellow Ledbetter (Pearl Jam)... - Brett Papa
Yellow Ledbetter (Pearl Jam) Lick - Brett Papa
This is a Pearl Jam classic…very Hendrixi - right out of the Hendrix 'Little Wing' Playbook - a lot of parts - same kind of structure with different variances on the riff. Papastache breaks down 12 bars. Amazing lesson!

"Yellow Ledbetter" - Live at Madison Square Garden - Pearl Jam
http://www.youtube.com/watch?v=veK0oeGdxLo

Source: PapastachePop

Rate this Song  Yellow Ledbetter (Pearl Jam)... - Brett Papa




Song Stats  Yellow Ledbetter (Pearl Jam)... - Brett Papa
Adder: Bill Charrette [ willc ]
Date: 12/20/2013
Tab By: willc
Rated: (4) Hot! Popular!
Views: 434
pdf Hits: 311
Genre: Licks
 
  Previous Lick | Next Lick