My Guitar Songbook
Good Evening: Guitar Player
Slow Shuffle Vamp Lick &...   Previous Lick | Next Lick

Audio, Chords & Tab pdf View pdf to Save / Print composition
Slow Shuffle Vamp Lick & Traveling Triplets - Robert Renman
* Audio file extracted from contributor’s website

Slow Shuffle Vamp Lick & Traveling Triplets - Robert Renman  (4/4 - Key E)

Rhythm - Slow Shuffle Vamp:
--------------------------
    ___     ___     ___     ___ 
   |   |   |   |   |   |   |   |
e|-------------------------------|
B|-------------------------------|
G|-------------------------------|
D|-----------------------------2-|
A|-2---2---2---2---2---2---------|
E|-0---0---0---0---0---0---3b----|


*:·..·:*¨¨*:·..·:*¨¨*:·..·:*¨¨*:·..·:*¨¨*:·..·:*¨¨*:·..·:*


Lick 1 - (E Minor Pentatonic Box 1 Extended):
--------------------------------------------
    ___ ___     ___ ___ 
   |   |   |   |   |   |
e|-----------------------|
B|-----3---5-------------|
G|s4-----------2br(2)-p0-|
D|-----------------------|
A|-----------------------|
E|-----------------------|


Lick 1 (Played at other positions on the fret board):
----------------------------------------------------


Lick 1 (E Minor Pentatonic Box 4)
    ___ ___     ___ ___ 
   |   |   |   |   |   |
e|-----------------------|
B|-----------------------|
G|-----7---9-------------|
D|s9-----------7br(7)-p5-|
A|-----------------------|
E|-----------------------|

Lick 1 (E Minor Pentatonic Box 5)
    ___ ___     ___ ___ 
   |   |   |   |   |   |
e|----10--12-------------|
B|s12---------10br(10)p8-|
G|-----------------------|
D|-----------------------|
A|-----------------------|
E|-----------------------|

Lick 1 (E Minor Pentatonic Box 2 - octave higher)
    ___ ___     ___ ___ 
   |   |   |   |   |   |
e|-----------------------|
B|----15--17-------------|
G|16----------14br(14)p12|
D|-----------------------|
A|-----------------------|
E|-----------------------|


*:·..·:*¨¨*:·..·:*¨¨*:·..·:*¨¨*:·..·:*¨¨*:·..·:*¨¨*:·..·:*


Embellishments:
---------------

Embellishment 1 - 1:02
---------------
    ___ ___          ___ ___     ___ ___ 
   |   |   |   |    |   |   |   |   |   |
e|-3b------0------|-----------------------|
B|------------s5v-|-----3---5-------------|
G|----------------|s4-----------2br(2)-p0-|
D|----------------|-----------------------|
A|----------------|-----------------------|
E|----------------|-----------------------|

Embellishment 2 - 1:10
---------------
    ___ ___     ___ ___     ___ ___         ___ ___     ___ ___ 
   |   |   |   |   |   |   |   |   |   |   |   |   |   |   |   |
e|------------s5-------5-|-3-------3-----|-----------------------|
B|-----3---5-------------|-------------5-|-----3-----------3-----|
G|s4---------------------|---------------|s4----------s4---------|
D|-----------------------|---------------|-----------------------|
A|-----------------------|---------------|-----------------------|
E|-----------------------|---------------|-----------------------|

   Lick 1
    ___ ___     ___ ___ 
   |   |   |   |   |   |
e|-----------------------|
B|-----3---5-------------|
G|s4-----------2br(2)-p0-|
D|-----------------------|
A|-----------------------|
E|-----------------------|

Embellishment 3 - 2:33
---------------

   Lick 1                  Lick 1                  Lick 1
    ___ ___     ___ ___     ___ ___     ___ ___     ___ ___     ___ ___
   |   |   |   |   |   |   |   |   |   |   |   |   |   |   |   |   |   |
e|-----------------------|-----------------------|-----------------------|
B|-----3---5-------------|-----3---5-------------|-----3---5-------------|
G|s4-----------2br(2)-p0-|s4-----------2br(2)-p0-|s4-----------2br(2)-p0-|
D|-----------------------|-----------------------|-----------------------|
A|-----------------------|-----------------------|-----------------------|
E|-----------------------|-----------------------|-----------------------|
             ___ ___     ___ ___ 
   |    |   |   |   |   |   |   |
e|--------|-----------------------|
B|--------|-----------------------|
G|--------|-----------------------|
D|-2----2-|-2---0-----------0-----|
A|--------|---------1-s-2---------|
E|--------|---------------------3-|

Embellishment 4
---------------
                           Lick 1
    ___ ___     ___ ___     ___ ___     ___ ___
   |   |   |   |   |   |   |   |   |   |   |   |
e|-----------------------|-----------------------|
B|-0---3s--5---3s--5--(5)|-----3---5-------------|
G|-----------------------|s4-----------2br(2)-p0-|
D|-----------------------|-----------------------|
A|-----------------------|-----------------------|
E|-----------------------|-----------------------|

Embellishment 5 - 2:45 
---------------

    ___ ___         ___ ___     ___ ___     ___ ___     ___ ___
   |   |   |   |   |   |   |   |   |   |   |   |   |   |   |   |
e|---------------|-----------------------|-----------------------|
B|-----8---------|-----------------8-----|-----------------------|
G|---------9--(9)|-----7---7---9-----9p7-|-----------------------|
D|s9-------------|s9---------------------|-9---7br(7)-p5---------|
A|---------------|-----------------------|-----------------7---5-|
E|---------------|-----------------------|-----------------------|

                   Lick 1 (MINOR Box 4)
    ___ ___         ___ ___     ___ ___ 
   |   |   |   |   |   |   |   |   |   |
e|---------------|-----------------------|
B|---------------|-----------------------|
G|---------------|-----7---9-------------|
D|---------------|s9-----------7br(7)-p5-|
A|-7-s7--------5-|-----------------------|
E|---------------|-----------------------|

Embellishment 6 (hang on one note) - 3:09
---------------
                              Lick 1 (Box 5)
                    ___ ___     ___ ___     ___ ___ 
   |     |    |    |   |   |   |   |   |   |   |   |
e|----------|----------------|----10--12-------------|
B|10b--(10)-|-8b-------------|s12---------10br(10)p8-|
G|----------|--------------9-|-----------------------|
D|----------|----------------|-----------------------|
A|----------|----------------|-----------------------|
E|----------|----------------|-----------------------|


Embellishment 7 (hang on one note) - 3:19
---------------
                   Lick 1 (Box 2 - one octave higher)
         ___ ___     ___ ___     ___ ___ 
   |    |   |   |   |   |   |   |   |   |
e|----------------|-----------------------|
B|----------------|----15--17-------------|
G|14b------rb(14)-|16----------14br(14)p12|
D|----------------|-----------------------|
A|----------------|-----------------------|
E|----------------|-----------------------|


*:·..·:*¨¨*:·..·:*¨¨*:·..·:*¨¨*:·..·:*¨¨*:·..·:*¨¨*:·..·:*


Lick 2 (Traveling Triplets Lick):
---------------------------------

    ___ ___     ___ ___     ___ ___     ___ ___     ___ ___     ___ ___
   |   |   |   |   |   |   |   |   |   |   |   |   |   |   |   |   |   |
e|---------0-----------0-|---------0-----------0-|---------0-----------0-|
B|-----3-----------5-----|-----8----------10-----|----12----------15-----|
G|s4----------s6---------|s9---------s11---------|s13---------s16--------|
D|-----------------------|-----------------------|-----------------------|
A|-----------------------|-----------------------|-----------------------|
E|-----------------------|-----------------------|-----------------------|
    ___ ___     ___ ___
   |   |   |   |   |   |   |    |
e|---------0-------------|12-------|
B|----15-----------------|---------|
G|s16--------14br(14)p12-|---------|
D|-----------------------|---------|
A|-----------------------|---------|
E|-----------------------|---------|
        
 
 
Info Show/Hide: Song Information
Stats Song Stats
Rate Show/Hide: Rate this Song
Top  

Song Info  Slow Shuffle Vamp Lick &... - Robert Renman
Slow Shuffle Vamp Lick & Traveling Triplets - Robert Renman
This lesson on a slow blues shuffle vamp is from the Master Guitar Academy website. A couple of ideas that are played over a slow blues shuffle vamp in the Key of E. Ideas you can build upon - it's not a "quick lick" kind of lesson.

The goal of this lesson is to show you how you can take something really basic that’s not fast and just a few notes to make something really cool out of it. And, it is fun as well.

Take almost about any idea and come back to the main lick – so strong, so tasty and so cool

Slow Shuffle Vamp Lick & Traveling Triplets Backing Track (MP3)

Source: MasterGuitarAcademy.com

Rate this Song  Slow Shuffle Vamp Lick &... - Robert Renman




Song Stats  Slow Shuffle Vamp Lick &... - Robert Renman
Adder: Bill Charrette [ willc ]
Date: 12/3/2013
Tab By: willc
Rated: (2) Hot! Popular!
Views: 420
pdf Hits: 121
Genre: Licks
 
  Previous Lick | Next Lick