My Guitar Songbook
Good Morning: Guitar Player
Southern Rock Lick   Previous Lick | Next Lick

Audio, Chords & Tab pdf View pdf to Save / Print composition
Southern Rock Lick - Jody Worrell
* Audio file extracted from contributor’s website

Southern Rock Lick - Jody Worrell  (4/4 - Key D)

Key D:
-----

    _   _   _ _ _     ___ 
   | | | | | | | |   |   |  | | |
e|-----------------|--------------|
B|-----------------|--------------|
G|-7---7-----7-----|-9-s10s-9-7---|
D|-7---7-----7-----|-9-s10s-9-7---|
A|-------8-9---8-9-|--------------|
E|-----------------|--------------|


*:·..·:*¨¨*:·..·:*¨¨*:·..·:*¨¨*:·..·:*¨¨*:·..·:*¨¨*:·..·:*


Key A (Transposed - Original Key D):
-----

    _   _   _ _ _     __ 
   | | | | | | | |   |  |  | | |
e|-----------------|-------------|
B|-----------------|-------------|
G|-2---2-----2-----|-4s-5s-4-2---|
D|-2---2-----2-----|-4s-5s-4-2---|
A|-------3-4---3-4-|-------------|
E|-----------------|-------------|
        
 
 
Info Show/Hide: Song Information
Stats Song Stats
Rate Show/Hide: Rate this Song
Top  

Song Info  Southern Rock Lick - Jody Worrell
Southern Rock Lick - Jody Worrell
Southern Rock Lick is a free video guitar lesson by Jody Worrell that will teach you how to play a lick in the key of D. The use of double stops and syncopation in this lick really give it the feel of a Lynyrd Skynyrd riff. Check out the tab and try practicing the lick along with Jody.

You know this is in the D Position because it is pulled out of this D Barr Chord shape - you bar the B, G and D strings at the 7th fret with your index finger and mute the A string with the end of your index finger and the E string with your thumb - all you get is the chord and none of the lower strings.

Source: FreeGuitarVideos.com

Rate this Song  Southern Rock Lick - Jody Worrell




Song Stats  Southern Rock Lick - Jody Worrell
Adder: Bill Charrette [ willc ]
Date: 8/26/2013
Tab By: willc
Rated: (6) Hot! Popular!
Views: 310
pdf Hits: 139
Genre: Licks
 
  Previous Lick | Next Lick