My Guitar Songbook
Good Evening: Guitar Player
Funky Country Lick in G   Previous Lick | Next Lick

Audio, Chords & Tab pdf View pdf to Save / Print composition
Funky Country Lick in G - Robert Renman
* Audio file extracted from contributor’s website

Funky Country Lick in G - Robert Renman  (4/4 - Key G)

Key G:
-----
                                               Start of lick
                                               MINOR (Box 5)
    ___    ___    ___    ___     ___    ___    ___    ___ 
   |   |  |   |  |   |  |   |   |   |  |   |  |   |  |   |
e|----------------------------|--------------------------3-|
B|--------5------3---3--------|-5------3---3-----------2h3-|
G|--------5------3h*-4--------|-5------3h*-4---------------|
D|-----5------5-------------5-|-----5----------------------|
A|----------------------------|----------------------------|
E|----------------------------|----------------------------|

                   MAJOR (Box 1)
    ___    ___    ___    ___     ___    ___    ___    ___ 
   |   |  |   |  |   |  |   |   |   |  |   |  |   |  |   |
e|(3)--3-(3)--3--3------------|----------------------------|
B|(3)--2p-1------1------------|----------------------------|
G|------------3----3p2p-0-----|-0--------------------------|
D|--------------------------2-|---3p2p-0------0------------|
A|----------------------------|------------4------1h-2-----|
E|----------------------------|--------------------------3-|


*:·..·:*¨¨*:·..·:*¨¨*:·..·:*¨¨*:·..·:*¨¨*:·..·:*¨¨*:·..·:*


Key A (Transposed - Original Key G):
-----
                                               Start of lick
                                               MINOR (Box 5)
    ___    ___    ___    ___     ___    ___    ___    ___ 
   |   |  |   |  |   |  |   |   |   |  |   |  |   |  |   |
e|----------------------------|--------------------------5-|
B|--------7------5---5--------|-7------5---5-----------4h5-|
G|--------7------5h*-6--------|-7------5h*-6---------------|
D|-----7------7-------------7-|-----7----------------------|
A|----------------------------|----------------------------|
E|----------------------------|----------------------------|

                   MAJOR (Box 1)
    ___    ___    ___    ___     ___    ___    ___    ___ 
   |   |  |   |  |   |  |   |   |   |  |   |  |   |  |   |
e|(5)--5-(5)--5--5------------|----------------------------|
B|(5)--4p-3------3------------|----------------------------|
G|------------5----5p4p-2-----|-2--------------------------|
D|--------------------------4-|---5p4p-2------2------------|
A|----------------------------|------------6------3h-4-----|
E|----------------------------|--------------------------5-|

h* - optional hammer-on (to make it sound more bluesy)
        
  pdf View pdf to Save / Print composition
 
 
Info Show/Hide: Song Information
Stats Song Stats
Rate Show/Hide: Rate this Song
Top  

Song Info  Funky Country Lick in G - Robert Renman
Funky Country Lick in G - Robert Renman
This lick is played in the Key of G so you can utilize the open G string a few times. You can play this in an open vamp in G or G7. The drum loop is pretty quick - 180 beats per minute.

The lick starts just before bar 3. Before that we play the G triad riff (first 2 bars)

Source: MasterGuitarAcademy.com

Rate this Song  Funky Country Lick in G - Robert Renman




Song Stats  Funky Country Lick in G - Robert Renman
Adder: Bill Charrette [ willc ]
Date: 6/24/2013
Updated: 8/1/2013
Tab By: willc
Rated: (3) Hot! Popular!
Views: 373
pdf Hits: 135
Genre: Licks
 
  Previous Lick | Next Lick