My Guitar Songbook
Good Afternoon: Guitar Player
Blues Rhythm 1 (Fingerstyle)   Previous Lick | Next Lick

Audio, Chords & Tab pdf View pdf to Save / Print composition
Blues Rhythm 1 (Fingerstyle) - Robert Renman
* Audio file extracted from contributor’s website

Blues Rhythm 1 (Fingerstyle) - Robert Renman  (4/4 - Key G)

Key G:  (12 bar blues)
-----
                    G
     _   _   _   _      _   _   _   _      _   _   _   _      _   _   _   _
    | | | | | | | |    | | | | | | | |    | | | | | | | |    | | | | | | | |
e|------------------|------------------|------------------|------------------|
B|------------------|------------------|------------------|------------------|
G|------------------|3h4---5---4-------|3h4---5---4-------|3h4---5---4-------|
D|------------------|3-----5---3-------|3-----5---3-------|3-----5---3-------|
A|------------------|------------------|------------------|------------------|
E|----------------3-|----3---3---3-3-3-|----3---3---3-3-3-|----3---3---3-3-3-|

                     C                                     G
     _   _   _   _      _   _   _   _      _   _   _   _      _   _   _   _
    | | | | | | | |    | | | | | | | |    | | | | | | | |    | | | | | | | |
e|------------------|------------------|------------------|------------------|
B|------------------|------------------|------------------|------------------|
G|3h4---5---4-------|8h9--10---9-------|8h9--10---9-------|3h4---5---4-------|
D|3-----5---3-------|8----10---8-------|8----10---8-------|3-----5---3-------|
A|------------------|------------------|------------------|------------------|
E|----3---3---3-3-3-|----8---8---8-8-8-|----8---8---8-8-8-|----3---3---3-3-3-|

                     D                         C                  G
     _   _   _   _     __    __    __    __      _   _   _   _      _   _   _   _
    | | | | | | | |   |  |  |  |  |  |  |  |    | | | | | | | |    | | | | | | | |
e|------------------|------------------------|------------------|------------------|
B|------------------|------------------------|------------------|------------------|
G|3h4---5---4-------|10h11-10----11----------|8h9--10---9-------|3h4---5---4-------|
D|3-----5---3-------|10----10----10----------|8----10---8-------|3-----5---3-------|
A|------------------|------------------------|------------------|------------------|
E|----3---3---3-3-3-|---10----10----10-10-10-|----8---8---8-8-8-|----3---3---3-3-3-|
        
 
 
Info Show/Hide: Song Information
Stats Song Stats
Rate Show/Hide: Rate this Song
Top  

Song Info  Blues Rhythm 1 (Fingerstyle) - Robert Renman
Blues Rhythm 1 (Fingerstyle) - Robert Renman
Guitar Lesson Overview

Let's learn a cool blues rhythm pattern!

Being able to play blues guitar well incorporates a lot more than being able to rip the minor pentatonic scale up and down. If we ignore blues licks for the moment, what a guitar player who is into blues should know, is how to play blues rhythm well. This lesson shows you one way to do just this.

Playing blues is just as much about playing good rhythm as it is playing lead. This is a fairly simple rhythmic pattern using both chords and bass notes. A 12 bar blues played in the key of G

Site: http://www.dolphinstreet.com/

Source: DolphinStreet.com

Rate this Song  Blues Rhythm 1 (Fingerstyle) - Robert Renman




Song Stats  Blues Rhythm 1 (Fingerstyle) - Robert Renman
Adder: Bill Charrette [ willc ]
Date: 5/28/2013
Tab By: willc
Rated: (5) Hot! Popular!
Views: 392
pdf Hits: 127
Genre: Licks
 
  Previous Lick | Next Lick