My Guitar Songbook
Good Afternoon: Guitar Player
E Blues Scale Lick 2   Previous Lick | Next Lick

Audio, Chords & Tab pdf View pdf to Save / Print composition
E Blues Scale Lick 2 - Jim Clymer
* Audio file extracted from contributor’s website

E Blues Scale Lick 2 - Jim Clymer  (4/4 - Key E)

Key E:
-----

     ___     ___     ___     ___     ___     ___     ___     ___ 
    |   |   |   |   |   |   |   |   |   |   |   |   |   |   |   |
e|--3b--0-----------0-----------0---------------------------0------|
B|----------0h--3-----------3--------------------------------------|
G|---------------------s4----------s2p--0-------0h--1--------------|
D|------------------------------------------2----------------------|
A|-----------------------------------------------------------------|
E|------------------------------------------------------0----------|



*:·..·:*¨¨*:·..·:*¨¨*:·..·:*¨¨*:·..·:*¨¨*:·..·:*¨¨*:·..·:*



Key A (Transposed - Original Key E):
-----

     ___     ___     ___     ___     ___     ___     ___     ___ 
    |   |   |   |   |   |   |   |   |   |   |   |   |   |   |   |
e|--8b--5-----------5---------------------------------------5------|
B|----------5h--8-----------8--10----------------------------------|
G|---------------------s9----------s7p--5-------5h--6--------------|
D|------------------------------------------7----------------------|
A|-----------------------------------------------------------------|
E|------------------------------------------------------5----------|


                             ---- OR ----


Key A (Transposed - Original Key: E)
-----

     ___     ___     ___     ___     ___     ___     ___     ___ 
    |   |   |   |   |   |   |   |   |   |   |   |   |   |   |   |
e|--8b--5-----------5-----------5---------------------------5------|
B|----------5h--8-----4s5---8--------------------------------------|
G|---------------------------------s7p--5-------5h--6--------------|
D|------------------------------------------7-----------7----------|
A|-----------------------------------------------------------------|
E|-----------------------------------------------------------------|
        
 
 
Info Show/Hide: Song Information
Stats Song Stats
Rate Show/Hide: Rate this Song
Top  

Song Info  E Blues Scale Lick 2 - Jim Clymer
E Blues Scale Lick 2 - Jim Clymer
Here’s a quick little lick to play in an E blues. It sounds good when played over an A7 chord before returning to the E or E7 in a 12-bar blues. I like to use a hybrid picking technique by always picking up on the open high E with my ring finger.

YouTube Lesson: http://www.youtube.com/watch?v=YmFvUmDwei0

Source: LearnBluesLicks.com

Rate this Song  E Blues Scale Lick 2 - Jim Clymer




Song Stats  E Blues Scale Lick 2 - Jim Clymer
Adder: Bill Charrette [ willc ]
Date: 5/13/2013
Tab By: willc
Rated: (4) Hot! Popular!
Views: 377
pdf Hits: 120
Genre: Licks
 
  Previous Lick | Next Lick