My Guitar Songbook
Good Afternoon: Guitar Player
Blues Rock Lead Guitar Lesson...   Previous Lick | Next Lick

Audio, Chords & Tab pdf View pdf to Save / Print composition
Blues Rock Lead Guitar Lesson (49) - Neal Walter
* Audio file extracted from contributor’s website

Blues Rock Lead Guitar Lesson (49) - Neal Walter  (4/4 - Key E)

Used for intros, leads and/or turnarounds:

Key E:
-----
                         E
    _   _   _   _   _     _   _ _   _   _ _ _ 
   | | | | | | | | | |   | | | | | | | | | | |   | 
e|-----4-----3-----2---|-0-0-------------------|-------
B|---------------------|-0-0-------------------|-------
G|-2s4---4s3---3s2---2-|-1-1-------------------|-------
D|---------------------|-2-----------------2---|-2-----
A|---------------------|-----0-1-2vv---2s4---4-|-2-----
E|---------------------|-----------------------|-0-----


*:·..·:*¨¨*:·..·:*¨¨*:·..·:*¨¨*:·..·:*¨¨*:·..·:*¨¨*:·..·:*


Key A (Transposed - Original Key E - modified slightly):
-----
                         A
    _   _   _   _   _     _ _   _   _ _   _   _ _ _ 
   | | | | | | | | | |   | | | | | | | | | | | | | |   |
e|-----9-----8-----7---|-----------------------------|-------
B|---------------------|-5(5)------------------------|-------
G|-7s9---9s8---8s7---7-|-5h6---------------------2---|-2-----
D|---------------------|-----7vv-------------2s4---4-|-2-----
A|---------------------|-----------5-6-7vv-----------|-0-----
E|---------------------|-----------------------------|-------
        
 
 
Info Show/Hide: Song Information
Stats Song Stats
Rate Show/Hide: Rate this Song
Top  

Song Info  Blues Rock Lead Guitar Lesson... - Neal Walter
Blues Rock Lead Guitar Lesson (49) - Neal Walter
This week on the channel Neal teaches a classic blues lick that is also used in rock guitar. In the key of E, this lick is very recognizable and is an essential addition to every blues or rock lick arsenal.

Tip of the week: How to practice so that your band performance is better. This lesson applies to acoustic or electric guitar players at a beginner to intermediate level.

Source: GuitarTricks.com

Rate this Song  Blues Rock Lead Guitar Lesson... - Neal Walter




Song Stats  Blues Rock Lead Guitar Lesson... - Neal Walter
Adder: Bill Charrette [ willc ]
Date: 4/9/2013
Updated: 3/11/2016
Tab By: willc
Rated: (2) Hot! Popular!
Views: 349
pdf Hits: 134
Genre: Licks
 
  Previous Lick | Next Lick